Song name
# A B C D E F G H I J K L M N O P Q R S T U V W X Y Z

Misc Unsigned Bands - Silent Resistance - Echo tab

The song is in Drop B (or C, not sure which), this isn't exactly how the song goes, but 
these are the riffs i think they used in the song. If you have any correction 
suggestions, leave them in the comments please C:

G1
e|--------------------------------------------------------------------------|
B|--------------------------------------------------------------------------|
G|--------------------------------------------------------------------------|
D|------------0~------3~-----5~---------------------------------------------|
A|----14s-----0~------3~-----5~----8-8-8-8-8-8-8-8--10-10-10-10-10-10-10-10-|
E|------------0~------3~-----5~----8-8-8-8-8-8-8-8--10-10-10-10-10-10-10-10-|

G2
e|--------------------------------------------------------------------------|
B|--------------------------------------------------------------------------|
G|--------------------------------------------------------------------------|
D|----8h7-------------------------------------------------------------------|
A|--------8h10---7---5s7---3---5---8-8-8-8-8-8-8-8--10-10-10-10-10-10-10-10-|
E|0-0----------0---0-----0---0-----8-8-8-8-8-8-8-8--10-10-10-10-10-10-10-10-|

G1(you can play G1 & G2 with triplets on the low E, a bit more build up)
e|--------------------------------------------------------------------------|
B|--------------------------------------------------------------------------|
G|--------------------------------------------------------------------------|
D|----8h7-------------------------------------------------------------------|
A|--------8h10---7---8s10---7---8-------------------------------------------|
E|0-0----------0---0------0---0---------------------------------------------|

G2
e|--------------------------------------------------------------------------|
B|--------------------------------------------------------------------------|
G|--------------------------------------------------------------------------|
D|----8h7-------------------------------------------------------------------|
A|--------8h10---7---5s7---3---5--------------------------------------------|
E|0-0----------0---0-----0---0----------------------------------------------|

G1&2
e|--------------------------------------------------------------------------|
B|--------------------------------------------------------------------------|
G|--------------------------------------------------------------------------|
D|--------------------------------------------------------------------------|
A|8-8-8-8-8-8-8-8-10-10-10-10-10-10-10-10-----------------------------------|
E|8-8-8-8-8-8-8-8-10-10-10-10-10-10-10-10-----------------------------------|

(Vocals come in)
G1
e|--------------------------------------------------------------------------|
B|--------------------------------------------------------------------------|
G|--------------------------------------------------------------------------|
D|7h8h7------------------8h10h8---------------------------------------------|
A|------8-7-5-7-8-5--x4---------10-8-7-8-10-7--x4---------------------------|
E|--------------------------------------------------------------------------|

G2
e|--------------------------------------------------------------------------|
B|--------------------------------------------------------------------------|
G|--------------------------------------------------------------------------|
D|10h12h10----------------------12h13h12------------------------------------|
A|---------12-10-8-10-12-8--x4-----------13-12-10-12-13-10---x4-------------|
E|--------------------------------------------------------------------------|

G1&2 [] around notes mean G1, () means G2 or vice versa
e|--------------------------------------------------------------------------|
B|--------------------------------------------------------------------------|
G|--------------------------------------------------------------------------|
D|0~--3~--5~----------------------------------------------------------------|
A|0~--3~--5~----------------------------------------------------------------|
E|0~--3~--5~-----[00000]-(00000)--------------------------------------------|

G1
e|--------------------------------------------------------------------------|
B|--------------------------------------------------------------------------|
G|--------------------------------------------------------------------------|
D|--------------------------------------------------------------------------|
A|0--0-8-8-8-0-0-0-7-7-7----------------------------------------------------|
E|0--0-------0-0-0----------------------------------------------------------|

G2
e|--------------------------------------------------------------------------|
B|--------------------------------------------------------------------------|
G|--------------------------------------------------------------------------|
D|-----7-7-7-------5-5-5----------------------------------------------------|
A|0--0-------0-0-0----------------------------------------------------------|
E|0--0-------0-0-0----------------------------------------------------------|

G1
e|--------------------------------------------------------------------------|
B|--------------------------------------------------------------------------|
G|--------------------------------------------------------------------------|
D|--------------------------------------------------------------------------|
A|3h5-----5-----5-----5---3s5-5---------------------------------------------|
E|3h5-5-5-5-5-5-5-5-5-5-5---------------------------------------------------|

G2
e|--------------------------------------------------------------------------|
B|--------------------------------------------------------------------------|
G|--------------------------------------------------------------------------|
D|-------------------------2s3-3--------------------------------------------|
A|3h5-----5-----5-----5-----------------------------------------------------|
E|3h5-5-5-5-5-5-5-5-5-5-5---------------------------------------------------|

G1
e|--------------------------------------------------------------------------|
B|--------------------------------------------------------------------------|
G|--------------------------------------------------------------------------|
D|7h8h7------------------8h10h8-----------------7h8h7-----8h10h8------------|
A|------8-7-5-7-8-5--x4---------10-8-7-8-10-7x2-------8-7--------10-8-------|
E|--------------------------------------------------------------------------|

D|10h12h10-------12h13h12-------------------------|
A|---------12-10----------13-12-------------------|

G2
e|--------------------------------------------------------------------------|
B|--------------------------------------------------------------------------|
G|--------------------------------------------------------------------------|
D|10h12h10----------------------12h13h12------------------------------------|
A|---------12-10-8-10-12-8--x4-----------13-12-10-12-13-10x2----------------|
E|--------------------------------------------------------------------------|

D|10h12h10-------12h13h12-------13h15h13-------15h17h15----------|
A|---------12-10----------13-12----------15-13----------17-15----|

G1
e|--------------------------------------------------------------------------|
B|--------------------------------------------------------------------------|
G|--------------------------------------------------------------------------|
D|7h8h7------------------8h10h8---------------------------------------------|
A|------8-7-5-7-8-5--x4---------10-8-7-8-10-7--x4---------------------------|
E|--------------------------------------------------------------------------|

G2
e|--------------------------------------------------------------------------|
B|--------------------------------------------------------------------------|
G|--------------------------------------------------------------------------|
D|10h12h10----------------------12h13h12------------------------------------|
A|---------12-10-8-10-12-8--x4-----------13-12-10-12-13-10---x4-------------|
E|--------------------------------------------------------------------------|

G1&2 [] around notes mean G1, () means G2 or vice versa
e|--------------------------------------------------------------------------|
B|--------------------------------------------------------------------------|
G|--------------------------------------------------------------------------|
D|0~--3~--5~----------------------------------------------------------------|
A|0~--3~--5~----------------------------------------------------------------|
E|0~--3~--5~-----[00000]-(00000)--------------------------------------------|

G1
e|--------------------------------------------------------------------------|
B|--------------------------------------------------------------------------|
G|--------------------------------------------------------------------------|
D|--------------------------------------------------------------------------|
A|0--0-8-8-8-0-0-0-7-7-7----------------------------------------------------|
E|0--0-------0-0-0----------------------------------------------------------|

G2
e|--------------------------------------------------------------------------|
B|--------------------------------------------------------------------------|
G|--------------------------------------------------------------------------|
D|-----7-7-7-------5-5-5----------------------------------------------------|
A|0--0-------0-0-0----------------------------------------------------------|
E|0--0-------0-0-0----------------------------------------------------------|

G1
e|--------------------------------------------------------------------------|
B|--------------------------------------------------------------------------|
G|--------------------------------------------------------------------------|
D|--------------------------------------------------------------------------|
A|3h5-----5-----5-----5---3s5-5---------------------------------------------|
E|3h5-5-5-5-5-5-5-5-5-5-5---------------------------------------------------|

G2
e|--------------------------------------------------------------------------|
B|--------------------------------------------------------------------------|
G|--------------------------------------------------------------------------|
D|-------------------------2s3-3--------------------------------------------|
A|3h5-----5-----5-----5-----------------------------------------------------|
E|3h5-5-5-5-5-5-5-5-5-5-5---------------------------------------------------|

G1
e|--------------------------------------------------------------------------|
B|--------------------------------------------------------------------------|
G|--------------------------------------------------------------------------|
D|--------------------------------------------------------------------------|
A|--------------------------------------------------------------------------|
E|0-2-3-0-7-3-000-000-000x4-------------------------------------------------|

G1 (G2 comes in with the same notes on the D string, G3 comes in on Gstring, slightly 
different notes)
e|--------------------------------------------------------------------------|
B|--------------------------------------------------------------------------|
G|--------------------------------------------------------------------------|
D|--------------------------------------------------------------------------|
A|--------------------------------------------------------------------------|
E|0-2-3-0-7-3-0-3-5-0-8-5-0-5-7-0-10-7-0-7-8-0-12-10-8-10-8-7-8-7-5-7-5-3---|

G1&2
e|--------------------------------------------------------------------------|
B|--------------------------------------------------------------------------|
G|--------------------------------------------------------------------------|
D|--------------------------------------------------------------------------|
A|000-0-000-0-12s-----------------------------------------------------------|
E|000-0-000-0-12sx4---------------------------------------------------------|

G1 Parenthesis are played after 2 repeats, tremolo picked all notes
e|--------------------------------------------------------------------------|
B|--------------------------------------------------------------------------|
G|--------------------------------------------------------------------------|
D|----------3---------------------------------------------------------------|
A|--------3------7---(5)----------------------------------------------------|
E|0~--3-5-----5~---3~-------------------------------------------------------|

G2 Parenthesis are played after 2 repeats, tremolo picked all notes
e|--------------------------------------------------------------------------|
B|--------------------------------------------------------------------------|
G|--------------------------------------------------------------------------|
D|-------3-7----5---(3)-----------------------------------------------------|
A|---3-5--------------------------------------------------------------------|
E|0~---------5~---3~--------------------------------------------------------|

(Fades out gradually)
Tap to rate this tab
# A B C D E F G H I J K L M N O P Q R S T U V W X Y Z