Song name
# A B C D E F G H I J K L M N O P Q R S T U V W X Y Z

Misc Unsigned Bands - John Gold - We Get High tab

This is my first tab, I'm 17.

GREAT SONG but nobody on the internet has tabbed it!

***There is a lot of up-strumming***

Email me for feedback leigh_roso616@hotmail.com

'We Get High" by John Gold

***Capo 2nd fret***

***Tabbed assuming capo represents end of neck, meaning actual fret 3, is fret 1 in this tab***

Intro/verses

e|----------------------------------------------------------|
b|----------------------------------------------------------|
g|----------------------------------------------------------|
d|----------------------------22222h44r----22222h44r--2-----|
a|--22222h44r----22222h44r----00000-00r----00000-00r----4---|
e|--00000-00r----00000-00r----------------------------------|

Repeat that until the words 'and we get hiigghh....'

The first half of the chorus goes like this...

e|-------------------------|
b|-------------------------|
g|-------------------------|    x 2
d|--444444222--------------|
a|--00000000022222444r-----|
e|-----------00000000r-----|

The second half goes like this...

e|----------------------|
b|----------------------|
g|----------------------|      x 2
d|--222222444444--------|
a|--0000000000002222444r|
e|--------------00000000|


The guitar solo part towards the end goes like this...

e|---------------------------------------------|
b|---------------------------------------------|
g|---------------------------------------------|
d|---------------------------------------------|
a|--6---6-4---4\2---2h4---4p2------------------|
e|------------------------------2h4---4p0r-----|


h = Hammer-on
p = Pull-off
\ = Slide-down
r = Ring-out

***PLEASE E-MAIL ME FOR FEEDBACK***

leigh_roso616@hotmail.com

ENJOY!!!!!!
Tap to rate this tab
# A B C D E F G H I J K L M N O P Q R S T U V W X Y Z