Song name
# A B C D E F G H I J K L M N O P Q R S T U V W X Y Z

Misc Unsigned Bands - Lianne Kaye Binnington - We Found Love tab

We Found Love - Lianne Kaye Binnington

http://www.youtube.com/watch?v=ypj4Y2UY28k

If you wanna play along here's how to do it:

Capo on 3 and of course tab relates to the capo.

Here's a list of frets to press:

e-x-    e-x-    e-x-    e-x-    e-x-    
B-1-    B-1-    B-1-    B-1-    B-1-    
G-0-    G-0-    G-0-    G-0-    G-0-    
D-2-    D-2-    D-3-    D-0-    D-0-    
A-3-    A-0-    A-0-    A-x-    A-2-    
E-x-    E-x-    E-x-    E-3-    E-x-    

Before we start Remember - Let all notes ring out! (:


[Intro]

e|-----------------|-----------------|-----------------|-----------------|
B|-1-----1-------1-|-1-----1-------1-|-1-----1-------1-|-1-----1-------1-|
G|---0-------0-----|---0-------0-----|---0-------0-----|---0-------0-----|
D|-----2-------2---|-----2-------2---|-----2-------2---|-----2-------2---|
A|-3---------------|-3---------------|-0---------------|-0---------------|
E|-----------------|-----------------|-----------------|-----------------|


e|-----------------|-----------------|-----------------|-----------------|
B|-1-----1-------1-|-1-----1-------1-|-1-----1-------1-|-1-----1---------|
G|---0-------0-----|---0-------0-----|---0-------0-----|---0-------------|
D|-----3-------3---|-----3-------3---|-----0-------0---|-----0-----------|
A|-0---------------|-0---------------|-----------------|-----------------|
E|-----------------|-----------------|-3---------------|-3---------------|


       Yellow Diamons in the light....
e|-----------------|-----------------|-----------------|-----------------|
B|-1-----1-------1-|-1-----1-------1-|-1-----1-------1-|-1-----1-------1-|
G|---0-------0-----|---0-------0-----|---0-------0-----|---0-------0-----|
D|-----2-------2---|-----2-------2---|-----2-------2---|-----2-------2---|
A|-3---------------|-3---------------|-3---------------|-3---------------|
E|-----------------|-----------------|-----------------|-----------------|


       As your shadow crosses mine....
e|-----------------|-----------------|-----------------|-----------------|
B|-1-----1-------1-|-1-----1-------1-|-1-----1-------1-|-1-----1-------1-|
G|---0-------0-----|---0-------0-----|---0-------0-----|---0-------0-----|
D|-----2-------2---|-----2-------2---|-----2-------2---|-----2-------2---|
A|-0---------------|-0---------------|-0---------------|-0---------------|
E|-----------------|-----------------|-----------------|-----------------|


                                       It's the way I'm feeling ....
e|-----------------|-----------------|-----------------|-----------------|
B|-1-----1-------1-|-1-----1-------1-|-1-----1-------1-|-1-----1-------1-|
G|---0-------0-----|---0-------0-----|---0-------0-----|---0-------0-----|
D|-----2-------2---|-----2-------2---|-----2-------2---|-----2-------2---|
A|-3---------------|-3---------------|-3---------------|-3---------------|
E|-----------------|-----------------|-----------------|-----------------|


       I just can't deny....
e|-----------------|-----------------|-----------------|-----------------|
B|-1-----1-------1-|-1-----1-------1-|-1-----1-------1-|-1-----1-------1-|
G|---0-------0-----|---0-------0-----|---0-------0-----|---0-------0-----|
D|-----2-------2---|-----2-------2---|-----2-------2---|-----2-------2---|
A|-0---------------|-0---------------|-0---------------|-0---------------|
E|-----------------|-----------------|-----------------|-----------------|


       We found love in a hopeless....
e|-----------------|-----------------|-----------------|-----------------|
B|-1-----1-------1-|-1-----1-------1-|-1-----1-------1-|-1-----1-------1-|
G|---0-------0-----|---0-------0-----|---0-------0-----|---0-------0-----|
D|-----2-------2---|-----2-------2---|-----2-------2---|-----2-------2---|
A|-3---------------|-3---------------|-3---------------|-3---------------|
E|-----------------|-----------------|-----------------|-----------------|


       We found love in a Hopeless....
e|-----------------|-----------------|-----------------|-----------------|
B|-1-----1-------1-|-1-----1-------1-|-1-----1-------1-|-1-----1-------1-|
G|---0-------0-----|---0-------0-----|---0-------0-----|---0-------0-----|
D|-----2-------2---|-----2-------2---|-----0-------0---|-----0-------0---|
A|-0---------------|-0---------------|-----------------|-----------------|
E|-----------------|-----------------|-3---------------|-3---------------|


e|-----------------|-----------------|
B|-1-----1-------1-|-1-----1---------|
G|---0-------0-----|---0-------------|
D|-----2-------2---|-----2-----------|
A|-3---------------|-3---------------|
E|-----------------|-----------------|


       Shine a Light though an....
e|-----------------|-----------------|-----------------|-----------------|
B|-1-----1-------1-|-1-----1-------1-|-1-----1-------1-|-1-----1-------1-|
G|---0-------0-----|---0-------0-----|---0-------0-----|---0-------0-----|
D|-----2-------2---|-----2-------2---|-----2-------2---|-----2-------2---|
A|-3---------------|-3---------------|-3---------------|-3---------------|
E|-----------------|-----------------|-----------------|-----------------|


       Turn away cause I need you....
e|-----------------|-----------------|-----------------|-----------------|
B|-1-----1-------1-|-1-----1-------1-|-1-----1-------1-|-1-----1-------1-|
G|---0-------0-----|---0-------0-----|---0-------0-----|---0-------0-----|
D|-----2-------2---|-----2-------2---|-----0-------0---|-----0-------0---|
A|-0---------------|-0---------------|-----------------|-2---------------|
E|-----------------|-----------------|-3---------------|-----------------|


                                       It's the way I'm feeling ....
e|-----------------|-----------------|-----------------|-----------------|
B|-1-----1-------1-|-1-----1-------1-|-1-----1-------1-|-1-----1-------1-|
G|---0-------0-----|---0-------0-----|---0-------0-----|---0-------0-----|
D|-----2-------2---|-----2-------2---|-----2-------2---|-----2-------2---|
A|-3---------------|-3---------------|-3---------------|-3---------------|
E|-----------------|-----------------|-----------------|-----------------|


       I just can't deny....
e|-----------------|-----------------|-----------------|-----------------|
B|-1-----1-------1-|-1-----1-------1-|-1-----1-------1-|-1-----1-------1-|
G|---0-------0-----|---0-------0-----|---0-------0-----|---0-------0-----|
D|-----2-------2---|-----2-------2---|-----2-------2---|-----2-------2---|
A|-0---------------|-0---------------|-0---------------|-0---------------|
E|-----------------|-----------------|-----------------|-----------------|


       We found love in a hopeless....
e|-----------------|-----------------|-----------------|-----------------|
B|-1-----1-------1-|-1-----1-------1-|-1-----1-------1-|-1-----1-------1-|
G|---0-------0-----|---0-------0-----|---0-------0-----|---0-------0-----|
D|-----2-------2---|-----2-------2---|-----2-------2---|-----2-------2---|
A|-3---------------|-3---------------|-3---------------|-3---------------|
E|-----------------|-----------------|-----------------|-----------------|


       We found love in a Hopeless....
e|-----------------|-----------------|-----------------|-----------------|
B|-1-----1-------1-|-1-----1-------1-|-1-----1-------1-|-1-----1-------1-|
G|---0-------0-----|---0-------0-----|---0-------0-----|---0-------0-----|
D|-----2-------2---|-----2-------2---|-----0-------0---|-----0-------0---|
A|-0---------------|-0---------------|-----------------|-----------------|
E|-----------------|-----------------|-3---------------|-3---------------|


e|-----------------|-----------------|-----------------|-----------------|
B|-1-----1-------1-|-1-----1-------1-|-1-----1-------1-|-1-----1-------1-|
G|---0-------0-----|---0-------0-----|---0-------0-----|---0-------0-----|
D|-----2-------2---|-----2-------2---|-----2-------2---|-----2-------2---|
A|-3---------------|-3---------------|-0---------------|-0---------------|
E|-----------------|-----------------|-----------------|-----------------|


e|-----------------|-----------------|-----------------|-----------------|
B|-1-----1-------1-|-1-----1-------1-|-1-----1-------1-|-1-----1---------|
G|---0-------0-----|---0-------0-----|---0-------0-----|---0-------------|
D|-----3-------3---|-----3-------3---|-----0-------0---|-----0-----------|
A|-0---------------|-0---------------|-----------------|-----------------|
E|-----------------|-----------------|-3---------------|-3---------------|



e|-----0-----------|
B|----1~~~~~~~~~~~~|
G|---0~~~~~~~~~~~~~|
D|--2~~~~~~~~~~~~~~|
A|-3~~~~~~~~~~~~~~~|
E|-----------------|


Well that's it, hope you enjoy playing it as much as I do. ^^
Tap to rate this tab
# A B C D E F G H I J K L M N O P Q R S T U V W X Y Z