Song name
# A B C D E F G H I J K L M N O P Q R S T U V W X Y Z

Misc Unsigned Bands - A Heros Demise - Live Another Lie tab

-------------------------------------------------------------------------------
                             Live Another Lie - A Hero's Demise
-------------------------------------------------------------------------------
Tabbed by: Kevin Rogers


Tuning: Drop C# 


        Main Riff/Chorus
D#|-----------------------------------------------------------------------------|
A#|---3---------10-------3------------------3---------10-10br--3----------------|
F#|---2---------10-------2------------------2---------10-10br--2----------------|
C#|---0---5/8-x-8--------0---5/8-x-3---5----0---5/8-x-8--------0---5/8-x-3---1--|
G#|-------5/8-x-8------------5/8-x-3---5--------5/8-x-8------------5/8-x-3---1--|
C#|-0---0-5/8---8------0---0-5/8---3---5--0---0-5/8---8------0---0-5/8---3---1--|

        Main Riff Lead pt 1
D#|-----------------------------------------------------------------------------|
A#|----6655------6655------6655--88665566----6655------6655------6655-----------|
F#|-5h7----77-5h7----77-5h7----77---------5h7----77-5h7----77-5h7----7755--5577-|
C#|----------------------------------------------------------------------77-----|
G#|-----------------------------------------------------------------------------|
C#|-----------------------------------------------------------------------------|

        Main Riff Lead pt 2
D#|-----------------------------------------------------------------------------|
A#|----6655------6655------6655--88665566----6655------6655---------------------|
F#|-5h7----77-5h7----77-5h7----77---------5h7----77-5h7----77-5577----55--------|
C#|---------------------------------------------------------------5577--7755----|
G#|-------------------------------------------------------------------------775~|
C#|-----------------------------------------------------------------------------|

        Verse
D#|-----------------------------------------------------------------------------|
A#|-------3------------------3------------------6------------------6------------|
F#|---2------------------2------------------5------------------5----------------|
C#|-----0------------------0------------------3------------------3--------------|
G#|----------------------------------------------------------3------------------|
C#|-0------------------0------------------3-------------------------------------|

        Verse Lead
D#|-----------------------------------------------------------------------------|
A#|-----6-------6-5-6/8-6-5-65----------6-------6-5-6/8-6-5-65------------------|
F#|-5-7-----5-7----------------7-5--5-7-----5-7----------------7-5-7~-----------|
C#|-----------------------------------------------------------------------------|
G#|-----------------------------------------------------------------------------|
C#|-----------------------------------------------------------------------------|

        Pre Chorus Riff
D#|-----------------------------------------------------------------------------|
A#|-----------------------------------------------------------------------------|
F#|-----------------------------------------------------------------------------|
C#|----------------------------------3333---------------------------------------|
G#|-000-00000-0-0------000-00000-0-0-3333-000-00000-0-0------000-00000----------|
C#|-000-00000-0-0-653~-000-00000-0-0-3333-000-00000-0-0-653~-000-00000----------|


        Solo Pt 1.
D#|-----10--13---------------------------------------------12-13b-13brb---------|
A#|-----13b----13pbr-13--13p11----------------------11-13b----------------------|
F#|----------------------------12-------10----10h12-----------------------------|
C#|-------------------------------10h12----12-----------------------------------|
G#|-----------------------------------------------------------------------------|
C#|-----------------------------------------------------------------------------|

D#|-----15p13p10-----15p13p10-----15p13p10-----15p13p10-----15p13p10------------|
A#|--------------13b----------13b----------13b----------13b----------13b--------|
F#|-----------------------------------------------------------------------------|
C#|-----------------------------------------------------------------------------|
G#|-----------------------------------------------------------------------------|
C#|-----------------------------------------------------------------------------|

D#|-----15p13p10-----15p13p10--------------------15p10-13p10----10--------------|
A#|--------------13b----------13b----13pb---13pb-------------13----13-11--------|
F#|-----------------------------------------------------------------------------|
C#|-----------------------------------------------------------------------------|
G#|-----------------------------------------------------------------------------|
C#|-----------------------------------------------------------------------------|

D#|-----------------------------------------------------------------------------|
A#|-----13b-13-11----------------------------13-13b~----------------------------|
F#|---------------12-12p10----------10----12------------------------------------|
C#|------------------------12-10-12----12---------------------------------------|
G#|-----------------------------------------------------------------------------|
C#|-----------------------------------------------------------------------------|


        Solo Pt 2.
D#|-----------------------------------------------------------------------------|
A#|-----3--5--6------6--8---10--------------------------------------------------|
F#|-----5b-7b-8b-----8b-10b-12b---------------------------5-7-7p5---5-----------|
C#|-------------------------------------------------5h7-7---------7-------------|
G#|---------------------------------------------5h7-----------------------------|
C#|-------------------------------------0-15\-0---------------------------------|

D#|-----------------------------------------------------------------------------|
A#|-----------------------------------------------------------------------------|
F#|-----5h7h9-7h9h10-9h10h12-10h12h14-14p12p10-12p10\7-9p7\5-7p5----------------|
C#|--------------------------------------------------------------7--------------|
G#|-----------------------------------------------------------------------------|
C#|-----------------------------------------------------------------------------|

D#|-----------------------------------------------------------------------------|
A#|-----------------------------------5-6/8-666-5555--------------5-------------|
F#|-------------------5---7b7p5---5-7----------------7777-555-5h7---7-----------|
C#|-----------5---5h7---7-------7-----------------------------------------------|
G#|-------5h7---7---------------------------------------------------------------|
C#|-----0-----------------------------------------------------------------------|

D#|-----------------------------------------------------------------------------|
A#|-----5h6p5---5-6/8\6-5h6h8-5h6h8-5h6h8-5h6h8-5h6h8-8-5h6h8-5h6h8-5h6h8-------|
F#|-----------7-----------------------------------------------------------------|
C#|-----------------------------------------------------------------------------|
G#|-----------------------------------------------------------------------------|
C#|-----------------------------------------------------------------------------|

D#|-----------------------------------------------------------------------------|
A#|-----5h6h8-5h6h8-8-5h6h8-5h6h8-5h6h8-5h6h8-5h6h8-8 8h10-8\6h8p6\5h6p5---5----|
F#|----------------------------------------------------------------------7------|
C#|-----------------------------------------------------------------------------|
G#|-----------------------------------------------------------------------------|
C#|-----------------------------------------------------------------------------|

D#|-----------------------------------------------------------------------------|
A#|-----------------------------------------------------------------------------|
F#|-----7-5-7-5---5-7-5---------------------------------------------------------|
C#|-------------7---------------------------------------------------------------|
G#|-----------------------------------------------------------------------------|
C#|-----------------------------------------------------------------------------|

        Outro Lead
D#|-----------------------------------------------------------------------------|
A#|-------------6---------------------6-----------------------------------------|
F#|-----7---------/7-------5-/7---------/7-------5-/7--etc.---------------------|
C#|-----------------------------------------------------------------------------|
G#|-----------------------------------------------------------------------------|
C#|-----------------------------------------------------------------------------|

        Ends on
D#|-----------------------------------------------------------------------------|
A#|-----------------------------------------------------------------------------|
F#|-----------------------------------------------------------------------------|
C#|--0--------------------------------------------------------------------------|
G#|--0--------------------------------------------------------------------------|
C#|--0--------------------------------------------------------------------------|

Order:

Main Riff
Main Riff With Lead (pts 1 & 2)
Verse
Verse With Lead
Pre Chorus Riff Chorus
Main Riff With Lead (pt 2)
Verse
Verse With Lead
Pre Chorus Riff
Chorus
Pre Chorus Riff
Solo Pt 1 (Over Pre Chorus Riff)
Solo Pt 2 (Over Chorus)
Main Riff With Lead (pts 1 & 2) & Outro Lead
The End


************************************

| /   slide up
| \   slide down
| h   hammer-on
| p   pull-off
| ~   vibrato
| +   harmonic
| x   Mute note
| b   Bend
| pb  Pre-bend
| br  Bend release
| pbr Pre-bend release
| brb Bend release bend

************************************
Tap to rate this tab
# A B C D E F G H I J K L M N O P Q R S T U V W X Y Z