Song name
# A B C D E F G H I J K L M N O P Q R S T U V W X Y Z

Misc Unsigned Bands - Rock-a-teens - Woo Hoo tab

Woo Hoo:The Rock-A-Teens.
#16 (12 weeks) Billboard Hot 100 in 1959.

INTRO:
E
Woo hoo, hoo, hoo, hoo..

(6th E hit open X12)

---------------------------------|
---------------------------------|
---------------------------------| (X4)
---------------------------------|
--------2--4-5-4-2---------------|
--0--4-------------4-------------|


---------------------------------|
---------------------------------|
---------------------------------| (X1)
--------2--4--5--4-2-------------|
--0--4---------------4-----------|
---------------------------------|

---------------------------------|
---------------------------------|
---------------------------------| (X1)
---------------------------------|
--------2--4-5-4-2---------------|
--0--4-------------4-------------|


---------------------------------|
---------------------------------|
---------------------------------| (X1)
----1--4-2-1---------------------|
--2-----------4-2----------------|
------------------4--0-----------|E


(YEEAH!)

---------------------------------|
---------------------------------|
---------------------------------|
---------------------------------| (X2)
--------2------------------------|
---0-4----0----------------------|

-----------------------------------|
-----------------------------------|
-----------------------------------| (X2)
---------2-------------------------|
--0--4------0----------------------|
-----------------------------------|

-----------------------------------|
-----------------------------------|
-----------------------------------| (X1)
----1--4-2-1-----------------------|
--2-----------4-2------------------|
------------------4--0-------------|E


#1.
E
Woo hoo..hoo, hoo, hoo.....woo hoo..hoo, hoo, hoo..
A                          E
Woo hoo..hoo, hoo, hoo.....woo hoo..hoo, hoo, hoo..
B         A            E
Woo, hoo, woo, hoo.....woo, hoo, hoo, hoo.


(INTERLUDE:DRUM SOLO:) E A E B A E (X2)

#2.

E
Whoo, hoo, hoo, hoo, hoo.....whoo, hoo, hoo, hoo, hoo..
A                            E
Whoo, hoo, hoo, hoo, hoo.....whoo, hoo, hoo, hoo, hoo..
B         A            E
Woo, hoo, woo, hoo.....woo, hoo, hoo, hoo.


(INTERLUDE:ACOUSTIC GUITARS:) E A E B A E (X2) (Owwwww!)

#3.
E
Whoo, hoo, hoo, hoo, hoo.....whoo, hoo, hoo, hoo, hoo..
A                            E
Whoo, hoo, hoo, hoo, hoo.....whoo, hoo, hoo, hoo, hoo..
B         A            E
Woo, hoo, woo, hoo.....woo, hoo, hoo, hoo.

OUTRO:
E
Whoo, hoo, hoo, hoo, hoo.....whoo, hoo, hoo, hoo, hoo..
A                            E
Whoo, hoo, hoo, hoo, hoo.....whoo, hoo, hoo, hoo, hoo..
B         A            E///////
Woo, hoo, woo, hoo.....


A fifties smash from Kraziekhat.
Tap to rate this tab
# A B C D E F G H I J K L M N O P Q R S T U V W X Y Z