Song name
# A B C D E F G H I J K L M N O P Q R S T U V W X Y Z

Misc Unsigned Bands - Luigi Takes The Lead - Luther tab

"Luther" Rhythm Guitar Tab
Tabbed by Martin Hacker-Mullen
http://www.martinhacker-mullen.bandcamp.com

Verse:

E|0--0h3--3h5--5h8-8h10-10h12p0--0h3-3--3h5-5--5h8-8h10-10h12p0--------------|
A|---------------------------------------------------------------------------|
D|---------------------------------------------------------------------------|
G|---------------------------------------------------------------------------|
B|---------------------------------------------------------------------------|
e|---------------------------------------------------------------------------|

E|--0h3-3--3h5-5--5h8-8h10-10-5--5h6p5-3-------------------------------------|
A|---------------------------------------------------------------------------|
D|---------------------------------------------------------------------------|
G|---------------------------------------------------------------------------|
B|---------------------------------------------------------------------------|
e|---------------------------------------------------------------------------|

Intro/Chorus/Solo:

E|0--0h3--3/5--5/8--10-0--0h3--3/5--5/8--10----------------------------------|
A|2--0h5--5/7--7/10-12-2--0h5--5/7--7/10-12----------------------------------|
D|2--0h5--5/7--7/10-12-2--0h5--5/7--7/10-12----------------------------------|
G|---------------------------------------------------------------------------|
B|---------------------------------------------------------------------------|
e|---------------------------------------------------------------------------|

Outro:
E|5---3---0------------------------------------------------------------------|
A|7---5---2------------------------------------------------------------------|
D|7---5---2------------------------------------------------------------------|
G|---------------------------------------------------------------------------|
B|---------------------------------------------------------------------------|
e|---------------------------------------------------------------------------|

Order:
Intro
Verse
Chorus
Verse
Solo
Verse
Chorus
Outro
Tap to rate this tab
# A B C D E F G H I J K L M N O P Q R S T U V W X Y Z