Song name
# A B C D E F G H I J K L M N O P Q R S T U V W X Y Z

Misc Unsigned Bands - Lianne Kaye Binnington - Last Christmas tab

Last Christmas - Lianne Kaye Binnington

http://www.youtube.com/watch?v=9dOrBa19pS8

If you wanna play along here's how to do it:

Capo on 3 and of course tab relates to the capo.

Here's a list of frets to press:

  D      Bm      Em       A     Dsus4

e-2-    e-2-    e-0-    e-0-    e-3-|
B-3-    B-3-    B-0-    B-2-    B-3-|
G-2-    G-4-    G-0-    G-2-    G-2-|
D-0-    D-4-    D-2-    D-2-    D-0-|
A-x-    A-2-    A-2-    A-0-    A-x-|
E-x-    E-x-    E-0-    E-x-    E-x-|

Before we start Remember - Let all notes ring out, unless you see an "x" then stop it 
from ringing and as soon as the next note comes it let it ring again.


e|-2-----2-------3-------2---------|---------------2-----------------|
B|---3-------3-------3-------3---0-|-3-----3---------------3-------0-|
G|-----2-------2-------2-------2---|---4-------4-------4-------4-----|
D|-0-------------------------------|-----4-------4-------4-------4---|
A|---------------------------------|-2-------------------------------|
E|---------------------------------|---------------------------------|


e|---------------3-----------------|---------------2-------0---------|
B|-0-----0---------------0-------0-|-2-----2-------------------------|
G|---0-------0-------0-------0-----|---2-------2-------2-------------|
D|-----2-------2-------2-------2---|-----2-------2-------2-----------|
A|-2-------------------------------|-0-------------------------------|
E|---------------------------------|---------------------------------|


   Last Christmas I gave you....
e|-2-----2-------3-------2---------|---------------2-----------------|
B|---3-------3-------3-------3---0-|-3-----3---------------3-------0-|
G|-----2-------2-------2-------2---|---4-------4-------4-------4-----|
D|-0-------------------------------|-----4-------4-------4-------4---|
A|---------------------------------|-2-------------------------------|
E|---------------------------------|---------------------------------|


   This year to save me....
e|---------------3-----------------|---------------2-------0---------|
B|-0-----0---------------0-------0-|-2-----2-------------------------|
G|---0-------0-------0-------0-----|---2-------2-------2-------------|
D|-----2-------2-------2-------2---|-----2-------2-------2-----------|
A|-2-------------------------------|-0-------------------------------|
E|---------------------------------|---------------------------------|


   Last Christmas I gave you....
e|-2-----2-------3-------2---------|---------------2-----------------|
B|---3-------3-------3-------3---0-|-3-----3---------------3-------0-|
G|-----2-------2-------2-------2---|---4-------4-------4-------4-----|
D|-0-------------------------------|-----4-------4-------4-------4---|
A|---------------------------------|-2-------------------------------|
E|---------------------------------|---------------------------------|

   This year to save me....
e|---------------3-----------------|---------------2-------0-------x-|
B|-0-----0---------------0-------0-|-2-----2-----------------------x-|
G|---0-------0-------0-------0-----|---2-------2-------2-----------x-|
D|-----2-------2-------2-------2---|-----2-------2-------2---------x-|
A|-2-------------------------------|-0-----------------------------x-|
E|---------------------------------|-------------------------------x-|


   Once bitten, and twice shy....
e|-2---x-2-------3-------2---------|-----x---------------x-----------|
B|-----x-----3-------3-------3---0-|-3---x-3-------3-----x-3-------0-|
G|-----x-------2-------2-------2---|-----x-----4-------4-x-----4-----|
D|-0---x-0-------------------------|-----x-------4-------x-------4---|
A|-----x---------------------------|-2---x-2-------------x-2---------|
E|-----x---------------------------|-----x---------------x-----------|


   Tell me baby....
e|-----x---------------x-----------|-----x---------------x-----------|
B|-0---x-0-------0-----x-0-------0-|-2---x-2-------2-----x-2-------2-|
G|-----x-----0-------0-x-----0-----|-----x-----2-------2-x-----2-----|
D|-----x-------2-------x-------2---|-----x-------2-------x-------2---|
A|-2---x-2-------------x-2---------|-0---x-0-------------x-----------|
E|-----x---------------x-----------|-----x---------------x-----------|


   Happy Christmas...
e|-2---x-2-------3-------2---------|-----x---------------x-----------|
B|-----x-----3-------3-------3---0-|-3---x-3-------3-----x-3-------0-|
G|-----x-------2-------2-------2---|-----x-----4-------4-x-----4-----|
D|-0---x-0-------------------------|-----x-------4-------x-------4---|
A|-----x---------------------------|-2---x-2-------------x-2---------|
E|-----x---------------------------|-----x---------------x-----------|


   Now I know what a fool I've been....
e|-----x---------------x-----------|-----x-------------------------x-|
B|-0---x-0-------0-----x-0-------0-|-2---x-2----------------2------x-|
G|-----x-----0-------0-x-----0-----|-----x-------2-----------------x-|
D|-----x-------2-------x-------2---|-----x-------------2-----------x-|
A|-2---x-2-------------x-2---------|-0---x-0-----------------------x-|
E|-----x---------------x-----------|-----x-------------------------x-|


###This part is just strumming and I'll leave it up to your capable mind to work the 
pattern out.###

|-D--------------Dsus4------D-------|-Bm-----------------------------|
|Last Christmas, I gave you my heart but the very next day you gave it away


|-E---------------------------------|-A------------------------------|
|This year to save me from tears,    I'll give it to someone special.


|-D--------------Dsus4------D-------|-Bm-----------------------------|
|Last Christmas, I gave you my heart but the very next day you gave it away


|-E---------------------------------|-A----------------------------X-|
|This year to save me from tears,    I'll give it to someone special.


   Crowded room, friends with tired eyes....
e|-2---x-2-------3-------2---------|-----x---------------x-----------|
B|-----x-----3-------3-------3---0-|-3---x-3-------3-----x-3-------0-|
G|-----x-------2-------2-------2---|-----x-----4-------4-x-----4-----|
D|-0---x-0-------------------------|-----x-------4-------x-------4---|
A|-----x---------------------------|-2---x-2-------------x-2---------|
E|-----x---------------------------|-----x---------------x-----------|


   My god, I though you were....
e|-----x---------------x-----------|-----x---------------x-----------|
B|-0---x-0-------0-----x-0-------0-|-2---x-2-------2-----x-2-------2-|
G|-----x-----0-------0-x-----0-----|-----x-----2-------2-x-----2-----|
D|-----x-------2-------x-------2---|-----x-------2-------x-------2---|
A|-2---x-2-------------x-2---------|-0---x-0-------------x-----------|
E|-----x---------------x-----------|-----x---------------x-----------|


   A face on a lover....
e|-2---x-2-------3-------2---------|-----x---------------x-----------|
B|-----x-----3-------3-------3---0-|-3---x-3-------3-----x-3-------0-|
G|-----x-------2-------2-------2---|-----x-----4-------4-x-----4-----|
D|-0---x-0-------------------------|-----x-------4-------x-------4---|
A|-----x---------------------------|-2---x-2-------------x-2---------|
E|-----x---------------------------|-----x---------------x-----------|


   Apart....
e|-----x---------------x-----------|-------------------------------x-|
B|-0---x-0-------0-----x-0-------0-|-2--------------2--------------x-|
G|-----x-----0-------0-x-----0-----|------2---------------2--------x-|
D|-----x-------2-------x-------2---|-----------2----------------2--x-|
A|-2---x-2-------------x-2---------|-0-----------------------------x-|
E|-----x---------------x-----------|-------------------------------x-|


###This part is just strumming and I'll leave it up to your capable mind to work the 
pattern out.###

|-D--------------Dsus4------D-------|-Bm-----------------------------|
|Last Christmas, I gave you my heart but the very next day you gave it away


|-E---------------------------------|-A------------------------------|
|This year to save me from tears,    I'll give it to someone special.


|-D--------------Dsus4------D-------|-Bm-----------------------------|
|Last Christmas, I gave you my heart but the very next day you gave it away


|-E---------------------------------|-A----------------------------X-|
|This year to save me from tears,    I'll give it to someone special.


|-D--------------Dsus4------D-------|-Bm-----------------------------|
|                                                                    |


|-E---------------------------------|-A----------------------------X-|
|                               I'll give it to someone special...   |

   End on D (:

        e-2-
        B-3-
        G-2-
        D-0-
        A-x-
        E-x-


Well that's it, hope you enjoy playing it as much as I do. ^^
Tap to rate this tab
# A B C D E F G H I J K L M N O P Q R S T U V W X Y Z