Song name
# A B C D E F G H I J K L M N O P Q R S T U V W X Y Z

Misc Unsigned Bands - The Last Ones Out - No Regrets tab

No Regrets by The Last Ones Out

Intro part 1
E ----------------------------------|
b ----------------------------------|
G ----------------------------------|
D -----7-------7--7-----7------7--7-|
A -5-5---5-5-5--5---5-5--5-5-5--5---|
E ----------------------------------|

Intro part 2
E ----------------------------------|
b ----------------------------------|
G ----------------------------------|
D -----7-------7--7-----7------7--7-|
A -0-0---0-0-0--0---0-0--0-0-0--0---|
E ----------------------------------|

Intro part 3
E ----------------------------------|
b ----------------------------------|
G ----------------------------------|
D -----7-------7--7-----7------7--7-|
A ----------------------------------|
E -7-7---7-7-7--7---7-7--7-7-7--7---|

Intro part 4
E -----------------------------|
b -----------------------------|
G -----------------------------|
D -----7-------7--7-----7----7-|
A -0-0---0-0-0--0---0-0--0-0---|
E -----------------------------|

Intro part 5
E -------------------------------|
b -------------------------------|
G -------------------------------|
D -----7-------7--7-----7--9--9--|
A -5-5---5-5-5--5---5-5--5--5--5-|
E -------------------------------|

Intro part 6
E -------------------------------|
b -------------------------------|
G -------------------------------|
D -----7-------7--7-----7--9--9--|
A -0-0---0-0-0--0---0-0--0--0--0-|
E -------------------------------|

Intro part 7
E -------------------------------|
b -------------------------------|
G -------------------------------|
D -----7-------7--7-----7--9--9--|
A -------------------------------|
E -7-7---7-7-7--7---7-7--7--7--7-|

Intro part 8
E ---------------------------|
b ---------------------------|
G ---------------------------|
D -----7-------7--7-----7--7-|
A -0-0---0-0-0--0---0-0--0---|
E ---------------------------|

Pre-Verse x 2
E --------------------------------------------|
b ----7-7-7------7-7-7------7-7-7------7-7-7--|
G ---7-7-7-7----7-7-7-7----7-7-7-7----7-7-7-7-|
D ----------------------------------5---------|
A -5----------0-------------------------------|
E -----------------------7--------------------|

Verse part 1 x 2
E -----------------------------------------------------------------|
B -----------------------------------------------------------------|
G -7-7-7-7-7--7-7--------------------------------------------------|
D -7-7-7-7-7--7-7--7-7-7-7-7--7-7--9-9-9-9-9--9-9--7-7-7-7-5-5-5-5-|
A -5-5-5-5-5--5-5--7-7-7-7-7--7-7--9-9-9-9-9--9-9--7-7-7-7-5-5-5-5-|
E -----------------5-5-5-5-5--5-5--7-7-7-7-7--7-7--5-5-5-5-3-3-3-3-|

Chorus part 1
E ---------------------------------------------------------------|
b ---------------------------------------------------------------|
G -------------------------------7-7-7-7-7--7-7------------------|
D -9-9-9-9-9--9-9--5-5-5-5--5-5--7-7-7-7-7--7-7--7-7-7-7-7-7-7-7-|
A -9-9-9-9-9--9-9--5-5-5-5--5-5--5-5-5-5-5--5-5--7-7-7-7-7-7-7-7-|
E -7-7-7-7-7--7-7--3-3-3-3--3-3------------------5-5-5-5-5-5-5-5-|

Chorus part 2
E --------------------------------------------------|
b --------------------------------------------------|
G -------------------------------7-7-7-7-7--7-7-----|
D -9-9-9-9-9--9-9--5-5-5-5--5-5--7-7-7-7-7--7-7--7~-|
A -9-9-9-9-9--9-9--5-5-5-5--5-5--5-5-5-5-5--5-5--7~-|
E -7-7-7-7-7--7-7--3-3-3-3--3-3------------------5~-|

Pre-Verse x 2
E --------------------------------------------|
b ----7-7-7------7-7-7------7-7-7------7-7-7--|
G ---7-7-7-7----7-7-7-7----7-7-7-7----7-7-7-7-|
D ----------------------------------5---------|
A -5----------0-------------------------------|
E -----------------------7--------------------|

Verse part 1 x 2
E -----------------------------------------------------------------|
B -----------------------------------------------------------------|
G -7-7-7-7-7--7-7--------------------------------------------------|
D -7-7-7-7-7--7-7--7-7-7-7-7--7-7--9-9-9-9-9--9-9--7-7-7-7-5-5-5-5-|
A -5-5-5-5-5--5-5--7-7-7-7-7--7-7--9-9-9-9-9--9-9--7-7-7-7-5-5-5-5-|
E -----------------5-5-5-5-5--5-5--7-7-7-7-7--7-7--5-5-5-5-3-3-3-3-|

Chorus part 1
E ---------------------------------------------------------------|
b ---------------------------------------------------------------|
G -------------------------------7-7-7-7-7--7-7------------------|
D -9-9-9-9-9--9-9--5-5-5-5--5-5--7-7-7-7-7--7-7--7-7-7-7-7-7-7-7-|
A -9-9-9-9-9--9-9--5-5-5-5--5-5--5-5-5-5-5--5-5--7-7-7-7-7-7-7-7-|
E -7-7-7-7-7--7-7--3-3-3-3--3-3------------------5-5-5-5-5-5-5-5-|

Chorus part 2
E --------------------------------------------------|
b --------------------------------------------------|
G -------------------------------7-7-7-7-7--7-7-----|
D -9-9-9-9-9--9-9--5-5-5-5--5-5--7-7-7-7-7--7-7--7~-|
A -9-9-9-9-9--9-9--5-5-5-5--5-5--5-5-5-5-5--5-5--7~-|
E -7-7-7-7-7--7-7--3-3-3-3--3-3------------------5~-|

Pre-Verse x 2
E --------------------------------------------|
b ----7-7-7------7-7-7------7-7-7------7-7-7--|
G ---7-7-7-7----7-7-7-7----7-7-7-7----7-7-7-7-|
D ----------------------------------5---------|
A -5----------0-------------------------------|

Verse part 1 x 2
E -----------------------------------------------------------------|
B -----------------------------------------------------------------|
G -7-7-7-7-7--7-7--------------------------------------------------|
D -7-7-7-7-7--7-7--7-7-7-7-7--7-7--9-9-9-9-9--9-9--7-7-7-7-5-5-5-5-|
A -5-5-5-5-5--5-5--7-7-7-7-7--7-7--9-9-9-9-9--9-9--7-7-7-7-5-5-5-5-|
E -----------------5-5-5-5-5--5-5--7-7-7-7-7--7-7--5-5-5-5-3-3-3-3-|

Bridge x 2
E -------------------------|
b -------------------------|
G -5s7~-7s9~-12s11s9s7-9-7-|
D -------------------------|
A -3s5~-5s7~-10s9-s7s5-7-5-|
E -------------------------|

Outro
E ----------------------------------------------------|
B ----------------------------------------------------|
G -7-7-7-7-7--7-7-------------------------------------|
D -7-7-7-7-7--7-7--7-7-7-7-7--7-7--9-9-9-9-9--9-9--5~-|
A -5-5-5-5-5--5-5--7-7-7-7-7--7-7--9-9-9-9-9--9-9--5~-|
E -----------------5-5-5-5-5--5-5--7-7-7-7-7--7-7--3~-|
Tap to rate this tab
# A B C D E F G H I J K L M N O P Q R S T U V W X Y Z