Song name
# A B C D E F G H I J K L M N O P Q R S T U V W X Y Z

Misc Unsigned Bands - The Last Ones Out - The Disaster To Unfold tab

The Disaster To Unfold intro by The Last Ones Out

1, 2.. 1, 2, 3, 4

Intro pt 1 x 2
E -------------------------------------|
b -------------------------------------|
G -------------------------------------|
D -------------------------------------|
A -----5-5-2-2-2-2-2-----5-5-2-2-0-2-3-|
E -3-3---------------0-0---------------|

Intro pt 2 x 2
E -------------------------------------|
b -------------------------------------|
G -----7-7-4-4-4-4-4-----7-7-4-4-2-4-5-|
D -5-5---------------2-2---------------|
A -------------------------------------|
E -------------------------------------|
Tap to rate this tab
# A B C D E F G H I J K L M N O P Q R S T U V W X Y Z