Song name
# A B C D E F G H I J K L M N O P Q R S T U V W X Y Z

Misc Unsigned Bands - The Last Ones Out - Time To Move On tab

Time To Move... On by The Last Ones Out

Intro pt 1 x 2
E -----------------14-|
b -------14-----------|
G --------------------|
D -----12--------12---|
A ---12--------12-----|
D -12--------12-------|

Intro pt 2 x 1
E --------------------14----------------------14-|
b -------14-------------14--------14-------------|
G -----------------------------------------------|
D -----12---12------12----------12---12----12----|
A ---12-------12--12----------12---------12------|
D -12-----------12----------12---------12--------|

Intro pt 3 x 4 (aka pre-verse)
E --------------------14---|
b -------14-------------14-|
G -------------------------|
D -----12---12------12-----|
A ---12-------12--12-------|
D -12-----------12---------|

Verse x 4
E -----------------------------------------|
b -10-10-10-10-9-9-9-9-9-7-7-7-7-7-7-7-7-7-|
G -7--7--7--7--7-7-7-7-7-7-7-7-7-7-7-7-7-7-|
D -----------------------------------------|
A -----------------------------------------|
D -----------------------------------------|

Pre-Verse x 2
E --------------------14---|
b -------14-------------14-|
G -------------------------|
D -----12---12------12-----|
A ---12-------12--12-------|
D -12-----------12---------|

Verse x 4
E -----------------------------------------|
b -10-10-10-10-9-9-9-9-9-7-7-7-7-7-7-7-7-7-|
G -7--7--7--7--7-7-7-7-7-7-7-7-7-7-7-7-7-7-|
D -----------------------------------------|
A -----------------------------------------|
D -----------------------------------------|

Chorus pt 1 x 1
E --------------------------------------------------------------------------|
b --------------------------------------------------------------------------|
G --------------------------------------------------------7-7-7-7-7-7-7-7-7-|
D -4-4-4-4-5-5-5-5-5-0-0-0-0-7-7-7-7-7--4-4-4-4-5-5-5-5-5-7-7-7-7-7-7-7-7-7-|
A -4-4-4-4-5-5-5-5-5-0-0-0-0-7-7-7-7-7--4-4-4-4-5-5-5-5-5-5-5-5-5-5-5-5-5-5-|
D -4-4-4-4-5-5-5-5-5-0-0-0-0-7-7-7-7-7--4-4-4-4-5-5-5-5-5-------------------|

Chorus pt 2 x 1
E ----------------------------------------------------------|
b ----------------------------------------------------------|
G ----------------------------------------------------------|
D -4-4-4-4-5-5-5-5-5-0-0-0-0-7-7-7-7-7--4-4-4-4-5-5-5-5-5-7-|
A -4-4-4-4-5-5-5-5-5-0-0-0-0-7-7-7-7-7--4-4-4-4-5-5-5-5-5-7-|
D -4-4-4-4-5-5-5-5-5-0-0-0-0-7-7-7-7-7--4-4-4-4-5-5-5-5-5-7-|

Post-Chorus pt 1 x 1
E --------------------------------------------|
b --------------------------------------------|
G --------------------------------------------|
D -0--2-5-5-7-7--7--0--2-5-5--9-9-9-9-7-7-7-7-|
A -0--2-5-5-7-7--7--0--2-5-5--9-9-9-9-7-7-7-7-|
D -0--2-5-5-7-7--7--0--2-5-5--9-9-9-9-7-7-7-7-|

Post-Chorus pt 2 x 1
E --------------------------------------------------------|
b --------------------------------------------------------|
G --------------------------------------------------------|
D -0--2-5-5-7-7--7--0-0-0-0-2-2-2-2-2-2-5-5-5-5-5-5-5-5-5-|
A -0--2-5-5-7-7--7--0-0-0-0-2-2-2-2-2-2-5-5-5-5-5-5-5-5-5-|
D -0--2-5-5-7-7--7--0-0-0-0-2-2-2-2-2-2-5-5-5-5-5-5-5-5-5-|

Verse x 4
E -----------------------------------------|
b -10-10-10-10-9-9-9-9-9-7-7-7-7-7-7-7-7-7-|
G -7--7--7--7--7-7-7-7-7-7-7-7-7-7-7-7-7-7-|
D -----------------------------------------|
A -----------------------------------------|
D -----------------------------------------|

Chorus pt 1 x 1
E --------------------------------------------------------------------------|
b --------------------------------------------------------------------------|
G --------------------------------------------------------7-7-7-7-7-7-7-7-7-|
D -4-4-4-4-5-5-5-5-5-0-0-0-0-7-7-7-7-7--4-4-4-4-5-5-5-5-5-7-7-7-7-7-7-7-7-7-|
A -4-4-4-4-5-5-5-5-5-0-0-0-0-7-7-7-7-7--4-4-4-4-5-5-5-5-5-5-5-5-5-5-5-5-5-5-|
D -4-4-4-4-5-5-5-5-5-0-0-0-0-7-7-7-7-7--4-4-4-4-5-5-5-5-5-------------------|

Chorus pt 2 x 1
E ----------------------------------------------------------|
b ----------------------------------------------------------|
G ----------------------------------------------------------|
D -4-4-4-4-5-5-5-5-5-0-0-0-0-7-7-7-7-7--4-4-4-4-5-5-5-5-5-7-|
A -4-4-4-4-5-5-5-5-5-0-0-0-0-7-7-7-7-7--4-4-4-4-5-5-5-5-5-7-|
D -4-4-4-4-5-5-5-5-5-0-0-0-0-7-7-7-7-7--4-4-4-4-5-5-5-5-5-7-|

Post-Chorus pt 1 x 1
E --------------------------------------------|
b --------------------------------------------|
G --------------------------------------------|
D -0--2-5-5-7-7--7--0--2-5-5--9-9-9-9-7-7-7-7-|
A -0--2-5-5-7-7--7--0--2-5-5--9-9-9-9-7-7-7-7-|
D -0--2-5-5-7-7--7--0--2-5-5--9-9-9-9-7-7-7-7-|

Post-Chorus pt 2 x 1
E --------------------------------------------------------|
b --------------------------------------------------------|
G --------------------------------------------------------|
D -0--2-5-5-7-7--7--0-0-0-0-2-2-2-2-2-2-5-5-5-5-5-5-5-5-5-|
A -0--2-5-5-7-7--7--0-0-0-0-2-2-2-2-2-2-5-5-5-5-5-5-5-5-5-|
D -0--2-5-5-7-7--7--0-0-0-0-2-2-2-2-2-2-5-5-5-5-5-5-5-5-5-|

Verse x 4
E -----------------------------------------|
b -10-10-10-10-9-9-9-9-9-7-7-7-7-7-7-7-7-7-|
G -7--7--7--7--7-7-7-7-7-7-7-7-7-7-7-7-7-7-|
D -----------------------------------------|
A -----------------------------------------|
D -----------------------------------------|

Outro pt 1 x 4
E ---------------------------------------|
b ---------------------------------------|
G ---------------------------------------|
D -0-0-0-0-2-2-2-2-2-2-5-5-5-5-5-5-5-5-5-|
A -0-0-0-0-2-2-2-2-2-2-5-5-5-5-5-5-5-5-5-|
D -0-0-0-0-2-2-2-2-2-2-5-5-5-5-5-5-5-5-5-|

Outro pt 2 x 1 (live version ends this way...)
E -----------------14---------------------14---|
b -------14------------------14----------------|
G ---------------------------------------------|
D -----12--------12--------12---12------12-----|
A ---12--------12--------12-------12--12-------|
D -12--------12--------12-----------12---------|
Tap to rate this tab
# A B C D E F G H I J K L M N O P Q R S T U V W X Y Z