Song name
# A B C D E F G H I J K L M N O P Q R S T U V W X Y Z

Misc Unsigned Bands - The Last Ones Out - My World Gone Wrong tab

My World Gone Wrong by The Last Ones Out

okay i hope you can follow. the intro riff ending pt. 2 plays every time the intro riff 
ends and intro riff ending pt.1 1 plays every time a chorus or verse or bridge ends. 
you'll see.

Intro x 2 (+ endings below)
E -----------------------------------------------------------------|
b -----5-3--------5-3--------5-3-5-6-6-5-3-1------5-3--------5-3---|
G ---------5----------5-------------------------------5----------5-|
D -----------------------------------------------------------------|
A -3-3-------------------0-0------------------3-3------------------|
E ------------3-3----------------------------------------3-3-------|

Intro ending first time around
E -------|
b -------|
G -2-----|
D -2-2-3-|
A -0-2-3-|
E ---0-1-|

Intro ending second time around (lead part, just play that)
E -------|
b -6-5-1-|
G -------|
D -------|
A -------|
E -------|

Verse 1 part 1 x 2(palm muted)
E -------------------------|
b -------------------------|
G -5-----------2-----------|
D -5(x8)-5-----2(x8)-3-----|
A -3-----5(x8)-0-----3(x8)-|
E -------3-----------1-----|

Verse 1 part 2 (palm muted)
E --------------------------|
b --------------------------|
G -5-----7-----9-----10-----|
D -5(x8)-7(x8)-9(x8)-10(x8)-|
A -3-----5-----7-----8------|
E --------------------------|

Verse 1 ending (same with all chorus/verse/whatever endings so i don't have to make any 
more repeats)
E -------------------|
b -------------------|
G -5-----7-----2-----|
D -5(x8)-7(x8)-2-2-3-|
A -3-----5-----0-2-3-|
E ---------------0-1-|

Intro riff with ending part 2

Verse 2 part 1 x 2 (same as verse 3)
E ------------------------------------|
b ------------------------------------|
G -5s4s5-5--5s4s5-5--5s4s5-5--5s4s7-7-|
D ------------------------------------|
A -3s2s3-3--3s2s3-3--3s2s3-3--3s2s5-5-|
E ------------------------------------|

Verse 2 part 2 (then end with intro riff part 1)
E -------------------------------------------------------------------|
b -------------------------------------------------------------------|
G -9--9--9-9-9-10-10-10-10-10------3s2s3-3-5-5-5--5s4s5-5--4s4s5-5-5-|
D -------------------------------------------------------------------|
A -7--7--7-7-7--8--8--8--8--8------3s2s3-3-5-5-5--3s2s3-3--3s2s3-3-3-|
E -------------------------------------------------------------------|

Chorus (always the same)
E -------------------------------------------------------------|
b -------------------------------------------------------------|
G -5--5-5-5-5--7--7-7-7-7-7-7--9--9-9-9--10--10-10-10-10-10-10-|
D -------------------------------------------------------------|
A -3--3-3-3-3--5--5-5-5-5-5-5--7--7-7-7--8---8--8-8-8--8--8--8-|
E -------------------------------------------------------------|

verse 3 (same as 2)

chorus again

bridge x 2
E -----------------------------------------------------------|
b -----------------------------------------------------------|
G -5-5----------5-----5-----5----5-----9-----9-----10-----10-|
D -----------------------------------------------------------|
A -3-3------3-3---3-3---3-3---3-3---7-7---7-7---8-8---8-8----|
E -----------------------------------------------------------|

bridge part 2 x 2
E ------------|
b ------------|
G ------------|
D ----7-----7-|
A ------------|
E -5-5---5-5--| etc...

intro for ending
the end
Tap to rate this tab
 
# A B C D E F G H I J K L M N O P Q R S T U V W X Y Z