Song name
# A B C D E F G H I J K L M N O P Q R S T U V W X Y Z

Misc Unsigned Bands - A Heros Demise - Remember Me tab

-------------------------------------------------------------------------------
                             Remember Me - A Hero's Demise
-------------------------------------------------------------------------------
Tabbed by: Kevin Rogers


Tuning: Drop C#


        Chorus/Main Riff:

D#|---------------------------------------------------------------------------|
A#|---------------------------------------------------------------------------|
F#|---------------------------------------------------------------------------|
C#|------4-4-4-6-6-6-7-7-7-6-6-6-6-7-6-6-2-2-2-4-4-4-6-6-6-4-4-4-6-6-4-4------|
G#|------4-4-4-4-4-4-4-4-4-4-4-4-4-4-4-4-2-2-2-2-2-2-2-2-2-2-2-2-2-2-2-2------|
C#|------4-4-4-4-4-4-4-4-4-4-4-4-4-4-4-4-2-2-2-2-2-2-2-2-2-2-2-2-2-2-2-2------|

D#|----------------------------------------------x-x---------x-x--------------|
A#|----------------------------------------------x-x-3---3-3-x-x-3-3-3-3------|
F#|----------------------------------------------x-x-2---2-2-x-x-2-2-2-2------|
C#|------4-4-4-6-6-6-7-7-7-6-6-6-6-7-6-6-2---2-2-x-x-0---0-0-x-x-0-0-0-0------|
G#|------4-4-4-4-4-4-4-4-4-4-4-4-4-4-4-4-2---2-2-x-x-0---0-0-x-x-0-0-0-0------|
C#|------4-4-4-4-4-4-4-4-4-4-4-4-4-4-4-4-2---2-2-x-x-0---0-0-x-x-0-0-0-0------|


        Main Riff Lead:

D#|---------------------------------------------------------------------------|
A#|---------------------------------------------------------------------------|
F#|------11-11-11-13-13-13-14-14-14-13-13-13-13-14-13-13----------------------|
C#|------x--x--x--x--x--x--x--x--x--x--x--x--x--x--x--x-----------------------|
G#|------9--9--9--11-11-11-12-12-12-11-11-11-11-12-11-11----------------------|
C#|---------------------------------------------------------------------------|

D#|---------------------------------------------------------------------------|
A#|---------------------------------------------------------------------------|
F#|------9--9--9--11-11-11-13-13-13-11-11-11-13-13-11-11----------------------|
C#|------x--x--x--x--x--x--x--x--x--x--x--x--x--x--x--x-----------------------|
G#|------7--7--7--9--9--9--11-11-11-9--9--9--11-11-9--9-----------------------|
C#|---------------------------------------------------------------------------|

D#|---------------------------------------------------------------------------|
A#|---------------------------------------------------------------------------|
F#|------11-11-11-13-13-13-14-14-14-13-13-13-13-14-13-13----------------------|
C#|------x--x--x--x--x--x--x--x--x--x--x--x--x--x--x--x-----------------------|
G#|------9--9--9--11-11-11-12-12-12-11-11-11-11-12-11-11----------------------|
C#|---------------------------------------------------------------------------|

D#|--------------x-x---------x-x----------------------------------------------|
A#|--------------x-x---------x-x----------------------------------------------|
F#|------9---9-9-x-x-7---7-7-x-x-7-7-7-7--------------------------------------|
C#|------x---x-x-x-x-x---x-x-x-x-x-x-x-x--------------------------------------|
G#|------7---7-7-x-x-5---5-5-x-x-5-5-5-5--------------------------------------|
C#|--------------x-x---------x-x----------------------------------------------|


        Verse:

D#|---------------------------------------------------------------------------|
A#|---------------------------------------------------------------------------|
F#|---------------------------------------------------------------------------|
C#|------4-4---6-6---7-7-----------------2-2---4-4---6-6----------------------|
G#|------4-4---4-4---4-4-----------------2-2---2-2---2-2----------------------|
C#|------4-4---4-4---4-4-----------------2-2---2-2---2-2----------------------|


        Verse: (Part 2 [play twice])

D#|---------------------------------------------------------------------------|
A#|---------------------------------------------------------------------------|
F#|---------------------------------------------------------------------------|
C#|---------------------------------------------------------------------------|
G#|------4-4-4-4-4-4-4-4-4-4-4-4-4-4-4-4-2-2-2-2-2-2-2-2-2-2-2-2-2-2-2-2------|
C#|------4-4-4-4-4-4-4-4-4-4-4-4-4-4-4-4-2-2-2-2-2-2-2-2-2-2-2-2-2-2-2-2------|


        Verse: (Part 2 [lead])

D#|---------------------------------------------------------------------------|
A#|---------------------------------------------------------------------------|
F#|---------------------------------------------------------------------------|
C#|------7-7-7-6-6-6-7-7-7-6-6-6-7-7-6-6-6-6-6-4-4-4-6-6-6-4-4-4-6-6-4-4------|
G#|---------------------------------------------------------------------------|
C#|---------------------------------------------------------------------------|

D#|---------------------------------------------------------------------------|
A#|---------------------------------------------------------------------------|
F#|---------------------------------------------------------------------------|
C#|------7-7-7-6-6-6-7-7-7-6-6-6-9-9-7-7-6-6-6-4-4-4-2-2-2-4-4-4-2-2-4-4------|
G#|---------------------------------------------------------------------------|
C#|---------------------------------------------------------------------------|


        Pre Chorus:

D#|--------------x-x---------x-x-----------------x-x---------x-x--------------|
A#|--------------x-x---------x-x-----------------x-x---------x-x--------------|
F#|--------------x-x---------x-x-----------------x-x---------x-x--------------|
C#|------0---0-0-x-x-0---0-0-x-x-0-0-0-0-2---2-2-x-x-2---2-2-x-x-2-2-2-2------|
G#|------0---0-0-x-x-0---0-0-x-x-0-0-0-0-2---2-2-x-x-2---2-2-x-x-2-2-2-2------|
C#|------0---0-0-x-x-0---0-0-x-x-0-0-0-0-2---2-2-x-x-2---2-2-x-x-2-2-2-2------|

D#|--------------x-x---------x-x-----------------x-x--------------------------|
A#|--------------x-x---------x-x-----------------x-x--------------------------|
F#|--------------x-x---------x-x-----------------x-x--------------------------|
C#|------0---0-0-x-x-0---0-0-x-x-0-0-0-0-2---2-2-x-x-2------------------------|
G#|------0---0-0-x-x-0---0-0-x-x-0-0-0-0-2---2-2-x-x-2------------------------|
C#|------0---0-0-x-x-0---0-0-x-x-0-0-0-0-2---2-2-x-x-2------------------------|


        Solo Backing:

D#|---------------------------------------------------------------------------|
A#|---------------------------------------------------------------------------|
F#|---------------------------------------------------------------------------|
C#|------4-4-4-6-6-6-7-7-7-6-6-6-6-7-6-6-2-2-2-4-4-4-6-6-6-4-4-4-6-6-4-4------|
G#|------4-4-4-4-4-4-4-4-4-4-4-4-4-4-4-4-2-2-2-2-2-2-2-2-2-2-2-2-2-2-2-2------|
C#|------4-4-4-4-4-4-4-4-4-4-4-4-4-4-4-4-2-2-2-2-2-2-2-2-2-2-2-2-2-2-2-2------|

D#|----------------------------------------------x-x---------x-x--------------|
A#|----------------------------------------------x-x-3---3-3-x-x-3-3-3-3------|
F#|----------------------------------------------x-x-2---2-2-x-x-2-2-2-2------|
C#|------4-4-4-6-6-6-7-7-7-6-6-6-6-7-6-6-2---2-2-x-x-0---0-0-x-x-0-0-0-0------|
G#|------4-4-4-4-4-4-4-4-4-4-4-4-4-4-4-4-2---2-2-x-x-0---0-0-x-x-0-0-0-0------|
C#|------4-4-4-4-4-4-4-4-4-4-4-4-4-4-4-4-2---2-2-x-x-0---0-0-x-x-0-0-0-0------|

D#|---------------------------------------------------------------------------|
A#|---------------------------------------------------------------------------|
F#|---------------------------------------------------------------------------|
C#|------4-4-4-6-6-6-7-7-7-6-6-6-6-7-6-6-2-2-2-4-4-4-6-6-6-4-4-4-6-6-4-4------|
G#|------4-4-4-4-4-4-4-4-4-4-4-4-4-4-4-4-2-2-2-2-2-2-2-2-2-2-2-2-2-2-2-2------|
C#|------4-4-4-4-4-4-4-4-4-4-4-4-4-4-4-4-2-2-2-2-2-2-2-2-2-2-2-2-2-2-2-2------|

D#|----------------------------------------------x-x---------x-x--------------|
A#|----------------------------------------------x-x-3---3-3-x-x-3-3-3-3------|
F#|----------------------------------------------x-x-2---2-2-x-x-2-2-2-2------|
C#|------4-4-4-6-6-6-7-7-7-6-6-6-6-7-6-6-2---2-2-x-x-0---0-0-x-x-0-0-0-0------|
G#|------4-4-4-4-4-4-4-4-4-4-4-4-4-4-4-4-2---2-2-x-x-0---0-0-x-x-0-0-0-0------|
C#|------4-4-4-4-4-4-4-4-4-4-4-4-4-4-4-4-2---2-2-x-x-0---0-0-x-x-0-0-0-0------|


D#|--------------x-x---------x-x----------------------------------------------|
A#|------3-3-3-3-x-x-3-3-3-3-x-x-3-3-3----------------------------------------|
F#|------2-2-2-2-x-x-2-2-2-2-x-x-2-2-2----------------------------------------|
C#|------0-0-0-0-x-x-0-0-0-0-x-x-0-0-0----------------------------------------|
G#|------0-0-0-0-x-x-0-0-0-0-x-x-0-0-0----------------------------------------|
C#|------0-0-0-0-x-x-0-0-0-0-x-x-0-0-0----------------------------------------|


        Solo:

D#|---------------------------------------------------------------------------|
A#|---------------------------------------------------------------------------|
F#|------11-11-11-13-13-13-14-14-14-13-13-13-13-14-13-13----------------------|
C#|------x--x--x--x--x--x--x--x--x--x--x--x--x--x--x--x-----------------------|
G#|------9--9--9--11-11-11-12-12-12-11-11-11-11-12-11-11----------------------|
C#|---------------------------------------------------------------------------|

D#|---------------------------------------------------------------------------|
A#|---------------------------------------------------------------------------|
F#|------9--9--9--11-11-11-13-13-13-11-11-11-13-13-11-11----------------------|
C#|------x--x--x--x--x--x--x--x--x--x--x--x--x--x--x--x-----------------------|
G#|------7--7--7--9--9--9--11-11-11-9--9--9--11-11-9--9-----------------------|
C#|---------------------------------------------------------------------------|

D#|---------------------------------------------------------------------------|
A#|---------------------------------------------------------------------------|
F#|------11-11-11-13-13-13-14-14-14-13-13-13-11-14-13-13----------------------|
C#|------x--x--x--x--x--x--x--x--x--x--x--x--x--x--x--x-----------------------|
G#|------9--9--9--11-11-11-12-12-12-11-11-11-13-12-11-11----------------------|
C#|---------------------------------------------------------------------------|

D#|--------------x-x---------x-x----------------------------------------------|
A#|--------------x-x---------x-x----------------------------------------------|
F#|------9---9-9-x-x-7---7-7-x-x-7-7-7-7--------------------------------------|
C#|------x---x-x-x-x-x---x-x-x-x-x-x-x-x--------------------------------------|
G#|------7---7-7-x-x-5---5-5-x-x-5-5-5-5--------------------------------------|
C#|--------------x-x---------x-x----------------------------------------------|

D#|---------------------------------------------------------------------------|
A#|---------------------------------------------------------------------------|
F#|------11-11-11-13-13-13-14-14-14-13-13-13-13-14-13-13----------------------|
C#|------x--x--x--x--x--x--x--x--x--x--x--x--x--x--x--x-----------------------|
G#|------9--9--9--11-11-11-12-12-12-11-11-11-11-12-11-11----------------------|
C#|---------------------------------------------------------------------------|

D#|---------------------------------------------------------------------------|
A#|---------------------------------------------------------------------------|
F#|------9--9--9--11-11-11-13-13-13-11-11-11-13-13-11-11----------------------|
C#|------x--x--x--x--x--x--x--x--x--x--x--x--x--x--x--x-----------------------|
G#|------7--7--7--9--9--9--11-11-11-9--9--9--11-11-9--9-----------------------|
C#|---------------------------------------------------------------------------|

D#|---------------------------------------------------------------------------|
A#|---------------------------------------------------------------------------|
F#|------11-11-11-13-13-13-14-14-14-13-13-13-13-14-16~------------------------|
C#|------x--x--x--x--x--x--x--x--x--x--x--x--x--x--x--------------------------|
G#|------9--9--9--11-11-11-12-12-12-11-11-11-11-12-14~------------------------|
C#|---------------------------------------------------------------------------|

D#|----------------x-x-----------x-x-------------x-x--------------------------|
A#|----------------x-x-----------x-x-------------x-x--------------------------|
F#|------18--18-18-x-x-18--18-18-x-x-18-18-18-18-x-x--------------------------|
C#|------x---x--x--x-x-x---x-x---x-x-x--x--x--x--x-x--------------------------|
G#|------16--16-16-x-x-16--16-16-x-x-16-16-16-16-x-x--------------------------|
C#|----------------x-x-----------x-x-------------x-x--------------------------|

D#|------------------x-x-------------x-x--------------------------------------|
A#|------------------x-x-------------x-x--------------------------------------|
F#|------18-18-18-18-x-x-18-18-18-18-x-x-18-18-18\----------------------------|
C#|------x--x--x--x--x-x-x--x--x--x--x-x-x--x--x------------------------------|
G#|------16-16-16-16-x-x-16-16-16-16-x-x-16-16-16\----------------------------|
C#|------------------x-x-------------x-x--------------------------------------|


        Final Chorus:

        (Clean Guitar)
D#|--------------x-x-------x-x---------x---------x-x---------x-x-----x-x------|
A#|--------------x-x-------x-x---------x---------x-x---------x-x-----x-x------|
F#|--------------x-x-------x-x---------x---------x-x---------x-x-----x-x------|
C#|------4-----6-x-x-7---7-x-x-6-6-7-6-x-2-----4-x-x-6---6-4-x-x-6-4-x-x------|
G#|------4---4-4-x-x-4---4-x-x-4-4-4-4-x-2---2-2-x-x-2---2-2-x-x-2-2-x-x------|
C#|------4---4-4-x-x-4---4-x-x-4-4-4-4-x-2---2-2-x-x-2---2-2-x-x-2-2-x-x------|

        (Distorted Guitar)
D#|----------------------------------------------x-x---------x-x--------------|
A#|----------------------------------------------x-x-3---3-3-x-x-3-3-3-3------|
F#|----------------------------------------------x-x-2---2-2-x-x-2-2-2-2------|
C#|------4-4-4-6-6-6-7-7-7-6-6-6-6-7-6-6-2---2-2-x-x-0---0-0-x-x-0-0-0-0------|
G#|------4-4-4-4-4-4-4-4-4-4-4-4-4-4-4-4-2---2-2-x-x-0---0-0-x-x-0-0-0-0------|
C#|------4-4-4-4-4-4-4-4-4-4-4-4-4-4-4-4-2---2-2-x-x-0---0-0-x-x-0-0-0-0------|

D#|---------------------------------------------------------------------------|
A#|---------------------------------------------------------------------------|
F#|---------------------------------------------------------------------------|
C#|------4-4-4-6-6-6-7-7-7-6-6-6-6-7-6-6-2-2-2-4-4-4-6-6-6-4-4-4-6-6-4-4------|
G#|------4-4-4-4-4-4-4-4-4-4-4-4-4-4-4-4-2-2-2-2-2-2-2-2-2-2-2-2-2-2-2-2------|
C#|------4-4-4-4-4-4-4-4-4-4-4-4-4-4-4-4-2-2-2-2-2-2-2-2-2-2-2-2-2-2-2-2------|

D#|----------------------------------------------x-x---------x-x--------------|
A#|----------------------------------------------x-x-3---3-3-x-x-3-3-3-3------|
F#|----------------------------------------------x-x-2---2-2-x-x-2-2-2-2------|
C#|------4-4-4-6-6-6-7-7-7-6-6-6-6-7-6-6-2---2-2-x-x-0---0-0-x-x-0-0-0-0------|
G#|------4-4-4-4-4-4-4-4-4-4-4-4-4-4-4-4-2---2-2-x-x-0---0-0-x-x-0-0-0-0------|
C#|------4-4-4-4-4-4-4-4-4-4-4-4-4-4-4-4-2---2-2-x-x-0---0-0-x-x-0-0-0-0------|


        Ends On:

D#|---------------------------------------------------------------------------|
A#|---------------------------------------------------------------------------|
F#|---------------------------------------------------------------------------|
C#|------4--------------------------------------------------------------------|
G#|------4--------------------------------------------------------------------|
C#|------4--------------------------------------------------------------------|


Order:

Main Riff w/ Lead x2
Verse riff x2
Verse part 2 (over verse riff)
Pre chorus 
Chorus riff x2
Main riff w/ lead
Verse riff x2
Verse part 2 (over verse riff)
Pre chorus
Chorus riff x2
Solo over backing
Final chorus 
Main riff w/ lead x2
end

************************************

| /   slide up
| \   slide down
| h   hammer-on
| p   pull-off
| ~   vibrato
| +   harmonic
| x   Mute note
| b   Bend
| pb  Pre-bend
| br  Bend release
| pbr Pre-bend release
| brb Bend release bend

************************************
Tap to rate this tab
# A B C D E F G H I J K L M N O P Q R S T U V W X Y Z