Song name
# A B C D E F G H I J K L M N O P Q R S T U V W X Y Z

Misc Unsigned Bands - Christopher Tyng - Suits End Credits Theme tab

-----------------------------------------------------------------------------
                SUITS End Credits Theme - Christopher Tyng
-----------------------------------------------------------------------------
Tabbed by: Tom Donnelly
Email: donnelly880@gmail.com

Tuning: Standard
    E     +E   Q    Q    E  E  E   E   E   E   E   S  S  E   S  S   E
e|-----|-------------------------|-------------------------------------|
B|-----|-------------------------|-15--13--15--13--15p13-----15p13-----|
G|-----|-------------------------|-----------------------14------------|
D|-----|-------------------------|---------------------------------15--|
A|-----|-------------------------|-------------------------------------|
E|--5--|--(5)--3----1----3--3--3-|-------------------------------------|

   E   E   E   E   S  S  E   S  S  E      E   E   E   E   S  S  E   S  S  E
e|-------------------------------------|------------------------13--15p13---|
B|-15--13--15--13--15p13-----15p13-----|--15--13--15--13--15p12-----------15|
G|-----------------------14--------13--|------------------------------------|
D|-------------------------------------|------------------------------------|
A|-------------------------------------|------------------------------------|
E|-------------------------------------|------------------------------------|

  E   E   E   E   S  S  E   S  S   E    E   E   E   E   S  S  E   S  S   E
e|------------------------------------|------------------------------------|
B|-15--13--15--13--15p13-----15p13----|-15--13--15--13--15p13-----15p13----|
G|-----------------------14-----------|-----------------------14-----------|
D|---------------------------------15-|---------------------------------15-|
A|------------------------------------|------------------------------------|
E|------------------------------------|------------------------------------|

   E   E   E   E   S  S  E   S  S  E      E   E   E   E   S  S  E   S  S  E
e|-------------------------------------|------------------------13--15p13---|
B|-15--13--15--13--15p13-----15p13-----|--15--13--15--13--15p12-----------15|
G|-----------------------14--------13--|------------------------------------|
D|-------------------------------------|------------------------------------|
A|-------------------------------------|------------------------------------|
E|-------------------------------------|------------------------------------|


************************************

| Q   quarter note / crochet
| E   eighth note / quaver
| S   sixteenth note / semiquaver
| p   pull-off
|(5)  tied note

************************************
Tap to rate this tab
 
# A B C D E F G H I J K L M N O P Q R S T U V W X Y Z