Song name
# A B C D E F G H I J K L M N O P Q R S T U V W X Y Z

Misc Unsigned Bands - The Last Ones Out - 39198644 tab

39198644 by The Last Ones Out

Intro x 4
E -----------------------|
b -----------------------|
G -----------------------|
D -7-7--7-7--7-7--7-7--7-|
A -----------------------|
E -5-5--5-5--5-5--5-5--5-|

Verse pt 1
E -----------------------------------------|
b -----------------------------------------|
G -----------------------------------------|
D -----4-4--5-----4-4--5-----5-5-4-2-4-5-4-|
A -5-5-------------------------------------|
E ------------7-7--------3-3---------------|

Verse pt 2
E -----------------------------------------|
b -----------------------------------------|
G -----------------------------------------|
D -----4-4--5-----4-4--5-----5-5-4-5-7-5-4-|
A -5-5-------------------------------------|
E ------------7-7--------3-3---------------|

Outro
E -----------------|
b -----------------|
G -----------------|
D -7-5-4--5-4-2--5-|
A -----------------|
E -----------------|
Tap to rate this tab
# A B C D E F G H I J K L M N O P Q R S T U V W X Y Z