Song name
# A B C D E F G H I J K L M N O P Q R S T U V W X Y Z

Misc Unsigned Bands - Phillip Phillips - Hazel tab

Verses:

--------------------------------------------------------------------------------------0-0--|
------------------------------------------------------------------------------0------------|
------4-4-----6-6------9-9----------------4-4---------6-6-----------9-9--------------------|
-------------------------------------------------------------------------------------------|
-------------------------------------------------------------------------------------------|
--/5-------/7--------/10----------------/5---------/7-----------/10--------10----10--------|



--------------------------------------10-------|
--------------------------------------10-------|
-----4-4---------6-6-----------9-9-------------|
-----------------------------------------------|
-----------------------------------------------|
--/5---------/7-----------/10------------------|



Chorus:
-----------------------------------------------------------|
--2---3---3---5---3-------------------------------------5--|
--2---4--h2--/4--h2-------------- second time dont play /4-|
--2---4---0---0---0------------------------------------- 0-|
--0---2----------------------------------------------------|
-----------------------------------------------------------|


Outro:

----------------10--------------------|
---------2------10-----------2--------|
-----2---2------9-------2----2---2----|
-----2---2------x-------2----2---2----|
-----1---0------x-------1----0---1----|
-----0--------/10-------0--------0----|

Lyrics -

Broke My heart
an pick the pieces
Threw them in the fire to burn
left me cold out in the rain.

Now im moving on
Without you baby
Without you by my side
Im Finally feeling free.


But i know that
the sun will shine for me
even when the skies are grey
but i feel like im missing something
but the bridges built narrow ways

I know youve moved on without me girl
but i still think
how the time moved so fast
still think of how the world
it goes around around around
and it all stopped when you said
enough for now....yeah, yeah


But i know that
the sun will shine for me
even when the skies are grey
and i feel like im missing something
but the bridges built narrow ways


like the ocean
washes sand to the shore
your like the sun
that slips away
left the taste of angel
and eyes that will bring me to my knees
and a smile that could set me free

just follow me
just follow me
Tap to rate this tab
# A B C D E F G H I J K L M N O P Q R S T U V W X Y Z