Song name
# A B C D E F G H I J K L M N O P Q R S T U V W X Y Z

Misc Unsigned Bands - Chris Zahra - A Dream tab

my first tab and i made this beat :)
E|--------------------------------------------------|
B|-0-0-0-0-0-0-0-0-2-2-2-2-2-3-3-3-3-3--------------|
G|--------------------------------------------------|
D|--------------------------------------------------|
A|0-0-0-0-2-2-2-2-2-2-2-2-2-2-2-2-2-2---------------|
E|--------------------------------------------------|

E|--------------------------------------------------|
B|-3-3-3-3-3-2-2-2-2-0-0-0-0-0----------------------|
G|--------------------------------------------------|
D|--------------------------------------------------|
A|0-0-0-0-0-0-0-0-0-0-0-0-0-0-0---------------------|
E|--------------------------------------------------|

e|--------------------------------------------------|
B|0-0-2--2-2-2--2-2-2--2-2-0--0-0-0--0-0--0---------|
G|--------------------------------------------------|
D|--------------------------------------------------|
A|0-0-0--0-0-2--2-2-3--3-3-3--3-3-2--2-2--0---------|
E|--------------------------------------------------|
  Repeat as Much as you like :)
Tap to rate this tab
 
# A B C D E F G H I J K L M N O P Q R S T U V W X Y Z