Song name
# A B C D E F G H I J K L M N O P Q R S T U V W X Y Z

Misc Unsigned Bands - Mayday Tuesday - Above The Skies tab

Capo 6th Fret

Verse Chords

e|-0--0--0--0--|
B|-0--0--0--0--|
G|-2--2--2--2--|
D|-2--0--0--0--|
A|-0--0--0--2--|
E|-0--0--2--0--|

Chorus Chords
e|-0--0--0--0--|
B|-3--3--3--3--|
G|-0--0--0--0--|
D|-0--0--0--0--|
A|-2--2--0--2--|
E|-0--3--2--0--|

Riff (As played at 0.09)
e|-------------------0-------------|
B|---0-------0-----------0---0-----|
G|--2-2-2---2-2-2---2---2---2-2-2--|
D|-2---2-2-0---0-0-0---0---0---0-0-|
A|0-------0------------------------|
E|----------------2---2---0--------|
    0.09
e|---------------------------------|
B|---0-------0-------0-------0-----|
G|--2-2-2---2-2-2---2-2-2---2-2-2--|
D|-2---2-2-0---0-0-0---0-0-0---0-0-|
A|0-------0------------------------|
E|----------------2-------0--------|

e|-------------------0-------------|
B|---0-------0-----------0---------|
G|--2-2-2---2-2-2---2---2----------|
D|-2---2-2-0---0-0-0---0-----------|
A|0-------0------------------------|
E|----------------2---2------------|
                      0.32                                   
                            
Riff (As played at 1.08, 2.15 and 3.39)
e|---------------------------------|
B|---0-------0-------0-------0-----|
G|--2-2-2---2-2-2---2-2-2---2-2-2--|
D|-2---2-2-0---0-0-0---0-0-0---0-0-|
A|0-------0------------------------|
E|----------------2-------0--------|

e|-------------------0-------------|
B|---0-------0-----------0---0-----|
G|--2-2-2---2-2-2---2---2---2-2-2--|
D|-2---2-2-0---0-0-0---0---0---0-0-|
A|0-------0------------------------|
E|----------------2---2---0--------|
Tap to rate this tab
# A B C D E F G H I J K L M N O P Q R S T U V W X Y Z