Song name
# A B C D E F G H I J K L M N O P Q R S T U V W X Y Z

Misc Unsigned Bands - The Paper Kites - Featherstone tab

Standard Tuning
Guitar 1: capo on 4th fret
Guitar 2: capo on 8th fret
(Chord names are relative to the capo on guitar 1)

For comments or corrections, feel free to email me at jpsevera@gmail.com

The timing of this song is a bit tricky so for your convenience I have placed in 
parentheses next to each chord the number of beats that it should be played.

All chords are extremely palm-muted where only the bass note in each chord is really played.

Chord Bank:

E: (0xxxxx)
A: (x0xxxx)
Dbm: (x4xxxx)
B: (x2xxxx)

Guitar 1 Part:

E – (8)

Verse 1:
     E – (7)
Wake up to the sound of your fleeting heart
     E - (7)
Wake up to the sound of your fleeting heart
     A – (6)
When you go, what you leave is a work of art
                  E – (8)
On my chest on my heart
     E – (7)
She went out to the haze in the morning grays
     E – (2)                   A – (1)    E – (4)
She went out and got lost in a tall hedge maze
     A – (6)
Where’d you go? Where’d you go? Why’d you leave this place?
                  E – (4)
On my heart on my face

Chorus:
       A – (1)     Dbm – (1)  B – (1)    E – (4)
And my love is yours but your love’s not mine
       A – (1)     Dbm – (1)  B – (1)    E – (4)
So I’ll go but we know I’ll see you down the line
       A – (1)     E – (1)    B – (1)    Dbm – (4)
And we’ll hate what we’ve lost but we’ll love what we find
       A – (4)
And I’m feelin’ fine, we made it to the coastline

Bridge (2x):
E – (4)       A – (4)
Ooh,   ooh,   ooh ooh ooh

Verse 2:
     E – (7)
Past all the signs of a slow decline
     E – (2)                   A – (1)    E – (4)
You live like your love wasn’t meant for mine
     A – (6)
Now you’ve gone, now you’ve gone to a different life
                  E – (8)
To the loneliest side
     Ab – (7)
Wake up to the sound of your fleeting heart
     E – (2)                   A – (1)    E – (4)
Wake up to the sound of your fleeting heart
     A – (6)
When you go, what you leave is a work of art
                  E – (4)
On my chest on my heart

Chorus

Bridge (7x)

Guitar 2 Part:
(Relative to the capo on guitar 2)

Verse 1 (Guitar 2 part begins halfway through verse 1):
  1       2       3       4       5       6       7
e|-----0-------0-------0-------0-------0-------0-------0--|
B|1-------0-----------------------1-------0---------------|
G|------0-------0-2-----2-0-----0-------0-------0-2-----2-|
D|--2-------2-------2-------2-------2-------2-------2-----|
A|--------------------------------------------------------|
E|--------------------------------------------------------|
  1       2       3       4       5       6       7
e|-----0-------0-------0-------0-------0-------0-------0--|
B|1-------0---------------1-------0-----------------------|
G|------0-------0-2-----2-------0-------0-2-----2-0-----0-|
D|--2-------2-------3-------2-------2-------2-------2-----|
A|--------------------------------------------------------|
E|--------------------------------------------------------|
  1       2       3       4       5       6
e|-----0-------0-------0-------0-------0-------0--|
B|1-------1-------1-------1-------1-------1-------|
G|------0-------0-------0-------0-------0-------0-|
D|--2-------2-------2-------2-------2-------2-----|
A|------------------------------------------------|
E|------------------------------------------------|
  1       2       3       4
e|-----0-------0-------0-------0--|
B|1-------0-----------------------|
G|------0-------0-2-----2-0-----0-|
D|--2-------2-------2-------2-----|
A|--------------------------------|
E|--------------------------------|

Chorus:
  1       2       3       4       5       6       7
e|-----0-------0-------3-------0-------0-------0-------0--|
B|1-------1-------0-------1-------0-------1-------0-------|
G|------2-------0-------0-------0-------0-------0-------0-|
D|--3-------2-------0-------2-------2-------2-------2-----|
A|--------------------------------------------------------|
E|--------------------------------------------------------|
  1       2       3       4       5       6       7
e|-----0-------0-------3-------0-------0-------0-------0--|
B|1-------1-------0-------1-------0-------1-------0-------|
G|------2-------0-------0-------0-------0-------0-------0-|
D|--3-------2-------0-------2-------2-------2-------2-----|
A|--------------------------------------------------------|
E|--------------------------------------------------------|
  1       2       3       4       5       6       7
e|-----0-------0-------3-------0-------0-------0-------0--|
B|1-------1-------0-------1-------1-------1-------1-------|
G|------2-------0-------0-------0-------0-------0-------0-|
D|--3-------2-------0-------2-------2-------2-------2-----|
A|--------------------------------------------------------|
E|--------------------------------------------------------|

Bridge:
  1       2       3       4       5       6       7       8
e|-----0-------0-------0-------0-------0-------0-------0-------0--|
B|1-------0-------1-------0-------3-------3-------3-------3-------|
G|------0-------0-------0-------0-------2-------2-------2-------2-|
D|--2-------2-------2-------2-------3-------3-------3-------3-----|
A|----------------------------------------------------------------|
E|----------------------------------------------------------------|

Verse 2:
  1       2       3       4       5       6       7
e|-----0-------0-------0-------0-------0-------0-------0--|
B|1-------0-----------------------1-------0---------------|
G|------0-------0-2-----2-0-----0-------0-------0-2-----2-|
D|--2-------2-------2-------2-------2-------2-------2-----|
A|--------------------------------------------------------|
E|--------------------------------------------------------|
  1       2       3       4       5       6       7
e|-----0-------0-------0-------0-------0-------0-------0--|
B|1-------0---------------1-------0-----------------------|
G|------0-------0-2-----2-------0-------0-2-----2-0-----0-|
D|--2-------2-------3-------2-------2-------2-------2-----|
A|--------------------------------------------------------|
E|--------------------------------------------------------|
  1       2       3       4       5       6
e|-----0-------0-------0-------0-------0-------0--|
B|1-------1-------1-------1-------1-------1-------|
G|------0-------0-------0-------0-------0-------0-|
D|--2-------2-------2-------2-------2-------2-----|
A|------------------------------------------------|
E|------------------------------------------------|
  1       2       3       4       5       6       7       8
e|-----0-------0-------0-------0-------0-------0-------0-------0--|
B|1-------0-----------------------1-------0-----------------------|
G|------0-------0-2-----2-0-----0-------0-------0-2-----2-0-----0-|
D|--2-------2-------2-------2-------2-------2-------2-------2-----|
A|----------------------------------------------------------------|
E|----------------------------------------------------------------|
  1       2       3       4       5       6       7
e|-----0-------0-------0-------0-------0-------0-------0--|
B|1-------0-----------------------1-------0---------------|
G|------0-------0-2-----2-0-----0-------0-------0-2-----2-|
D|--2-------2-------2-------2-------2-------2-------2-----|
A|--------------------------------------------------------|
E|--------------------------------------------------------|
  1       2       3       4       5       6       7
e|-----0-------0-------0-------0-------0-------0-------0--|
B|1-------0---------------1-------0-----------------------|
G|------0-------0-2-----2-------0-------0-2-----2-0-----0-|
D|--2-------2-------3-------2-------2-------2-------2-----|
A|--------------------------------------------------------|
E|--------------------------------------------------------|
  1       2       3       4       5       6
e|-----0-------0-------0-------0-------0-------0--|
B|1-------1-------1-------1-------1-------1-------|
G|------0-------0-------0-------0-------0-------0-|
D|--2-------2-------2-------2-------2-------2-----|
A|------------------------------------------------|
E|------------------------------------------------|
  1       2       3       4
e|-----0-------0-------0-------0--|
B|1-------0-----------------------|
G|------0-------0-2-----2-0-----0-|
D|--2-------2-------2-------2-----|
A|--------------------------------|
E|--------------------------------|
Tap to rate this tab
# A B C D E F G H I J K L M N O P Q R S T U V W X Y Z