Song name
# A B C D E F G H I J K L M N O P Q R S T U V W X Y Z

Misc Unsigned Bands - Duster - The Landing tab

-------------------------------------------------------------------------------
                             The Landing- Duster
-------------------------------------------------------------------------------
Tabbed by:Jacob Spotts
Email:
jacob.i.spotts@gmail.com
Tuning:standard
This tab is not 100% accurate, but I thought there should be at least one duster tab
around. I could only tab until the middle of the song, it gets kinda sketchy around there

This is the first part


e|-------------------------------------------------------------------------------|
B|-------------------------------------------------------------------------------|
G|------------------------4--------------------2---------------------------------|
D|---6------2------6-------------3------2----------------------------------------|
A|-4------4------4------4------2------2------2-----------------------------------|
E|5-5----5-5----5-5----5-5----2-2----2-2----2-2----------------------------------|

Around 1:00 it changes, this is where it gets sketchy. It sounds like the low e is tuned
to a c, but that might just be the bass. So I just play on the 4th fret of the e string
along with everything else to get a similar sound

e|-------------------------------------------------|
B|-------------------------------4-----------------|
G|----------------------------------------4-----4--|
D|---2/4----2/4----2/4----2/4----------------------|
A|-1------1------1------1------6---6----4------4---|
E|0-0----0-0----0-0----0-0----4-4-4----5-5----5-5--|

Then there's another line of the first part of this riff, then it goes back to the
beginning. This is my first tab, sorry if it isn't perfect, if the rhythm isn't totally
right, listen to the song, it's pretty easy to figure out. I just want at least one 
duster tab to be out there
Tap to rate this tab
 
# A B C D E F G H I J K L M N O P Q R S T U V W X Y Z