Song name
# A B C D E F G H I J K L M N O P Q R S T U V W X Y Z

Misc Unsigned Bands - Black Egde - Gone Forever tab

     This is the solo to my new song GONE FOEVER

D-------------------------------------------------------------------------|
a----------------------------------14-13-12/10-12/14----------------------|
d--------------14---------14--14-12-----------------12-14-----------------|
g-14^-12~-14-12--12~-14-12--12---------------------------11-12-14~--------|
b-12----------------------------------------------------------------------|
e-------------------------------------------------------------------------|

   SHRED
D----------------------------------------------------------------------------|
a-----------------------------------------------16---------------------------|
d1214------------------------------------161514--141516----------------------|
g----131416----------------------16--1614--------------141516----------------|
b----------141517----------171514--14------------------------141517----------|
e----------------1415171514----------------------------------------141517/19-|

D-------------------------------------------------------------------------|
a-------------------------------------------------------------------------|
d-------------------------------------------------------------------------|
g-------------------------------------------------------------------------|
b------17------17------17------17------17------15------15------15------15-|
e-19p15---19p15---19p15---19p15---19p15---17p14---17p14---17p14---17p14---|

D--------------------------------------------------------------------------|
a--------------------------------------------------------------------------|
d--------------------------------------------------------------------------|
g--------------------------------------------------------------------------|x2
b------15------13------13------13------13------13------15------15------15--|
e-17p14---15p12---15p12---15p12---15p12---15p12---17p14---17p14---17p14----|

D----------------------------------------------------------------------------|
a----------------------------------------------------------------------------|
d----------------------------------------------------------------------------|
g----------------------------------------------------------------------------|
b-------------------------------------------1917151719-1917151719-1917151719-|
e1917151719-1917151719-1917151719-1917151719---------------------------------|

D------------------------------------------------------------------------|
a------------------------------------------------------------------------|
d------------------------------------------------------------------------|
g------------------------------------------------------------------------|
b-1917151719-----------------------------------------1715141517-17141517-|
e-----------1715141517-1715141517-1715141517-17151417--------------------|

D--------------------------------------------------------------------|
a--------------------------------------------------------------------|
d--------------------------------------------------------------------|
g--------------------------------------------------------------------|
b-1715141517-1715141517----------------------------------------------|
e----------------------1917151719-1917151719-1917151719-1917151719---|

D------------------------------------------------------------------|
a------------------------------------------------------------------|
d------------------------------------------------------------------|
g------------------------------------------------------------------|
b-1917151719-1917151719-1917151719-1917151719----------------------|
e--------------------------------------------1715141517-1715141517-|

D----------------------------------------------------------------------|
a----------------------------------------------------------------------|
d----------------------------------------------------------------------|
g----------------------------------------------------------------------|
b----------------------1715141517-1715141517-1715141517-1715141517-----|
e-1715141517-1715141517------------------------------------------------|

D----------------------------12~\--|
a-----------15-14-15-14\12-10------|
d---------14-----------------------|
g-16-14-12-------------------------|
b----------------------------------|
e----------------------------------|

THE END HOPE U ENJOY!!! ROCK ON!!!
Tap to rate this tab
 
# A B C D E F G H I J K L M N O P Q R S T U V W X Y Z