Song name
# A B C D E F G H I J K L M N O P Q R S T U V W X Y Z

Misc Unsigned Bands - One Hot Minute - Chapter 1 tab

Capo on 2

Intro
|--7--------------|--5-------------|----------------|----------|-----------|
|-----------------|----------------|--8-------------|--8-----7-|--3--------|
|-------0---------|------0---------|------0---------|----------|-----0-----|
|--5----------(x4)|--4---------(x4)|--------0---(x4)|----------|--------0--|
|----------5------|---------5------|--7-------------|--7------5|--3--------|
|-----------------|----------------|----------------|----------|-----------|

Verse 1
|--7--------------|--5-------------|----------------|----------|-----------|
|-----------------|----------------|--8-------------|--8-----7-|--3--------|
|-------0---------|------0---------|------0---------|----------|-----0-----|
|--5----------(x4)|--4---------(x4)|--------0---(x4)|----------|--------0--|
|----------5------|---------5------|--7-------------|--7------5|--3--------|
|-----------------|----------------|----------------|----------|-----------|

Chorus
|--0--------0--|--2-------2---|--3------3-|--5------5--|--------------|
|--------------|--------------|-----------|------------|--3-----------|
|-------0------|------2-------|------0----|------------|-----0--------|
|--------------|--0-----------|--2--------|--4---------|-------0--(x4)| (x2)
|--3-----------|--------------|-----------|------5-----|--3-----------|
|--------------|--------------|-----------|------------|--------------|

|--7--------7---|--5-------5---|--3------3----|--2-----2--|--------------|
|---------------|--------------|--------------|-----------|--3-----------|
|-------0-------|--------------|------0-------|-----------|-----0--------|
|--5------------|--4-----------|--2-----------|------2----|--------0-(x4)|
|---------------|-------5------|--------------|--0--------|--3-----------|
|---------------|--------------|--------------|-----------|--------------|

|--0------------|
|------3--------|
|---------------|
|-------0-------|
|--3------------|
|---------------|

Verse 2
|--7--------------|--5-------------|----------------|----------|-----------|
|-----------------|----------------|--8-------------|--8-----7-|--3--------|
|-------0---------|------0---------|------0---------|----------|-----0-----|
|--5----------(x4)|--4---------(x4)|--------0---(x4)|----------|--------0--|
|----------5------|---------5------|--7-------------|--7------5|--3--------|
|-----------------|----------------|----------------|----------|-----------|

|--7--------------|--5-------------|----------------|----------|-----------|
|-----------------|----------------|--8-------------|--8-----7-|--3--------|
|-------0---------|------0---------|------0---------|----------|-----0-----|
|--5----------(x4)|--4---------(x4)|--------0---(x4)|----------|--------0--|
|----------5------|---------5------|--7-------------|--7------5|--3--------|
|-----------------|----------------|----------------|----------|-----------|

Outro
|----------|
|------12--|
|------12--|
|------12--|
|------10--|
|----------|
Tap to rate this tab
 
# A B C D E F G H I J K L M N O P Q R S T U V W X Y Z