Song name
# A B C D E F G H I J K L M N O P Q R S T U V W X Y Z

Misc Unsigned Bands - Liberty Lies - Day In The Sun tab

Artist: Liberty Lies
Song: Day In The Sun
Album: New Addiction (EP)
Tuning: Drop C#
(With cello in the background)
 
D#|---------------------|--------------------|------------------|
A#|---------------------|--------------------|------------------|
F#|:--------------------|--------------------|------------------|
C#|:---2h4p2---2--4-----|---2h4p2-----2------|---2h4p2---4--5---|
G#|-----------5---------|----------5-----5---|----------5-----0-|
C#|-0~~~~---------------|0~~~~---------------|0~~~~-------------|

|--------------------|
|--------------------|
|------------------:-|
|-4-4-X--7~~~~~----:-|
|-2-2-X--5~~~~~------|
|--------------------|

~ = Let ring
h = Hammer on
p = Pull off
: = Repeat

Just the intro for now...
Tap to rate this tab
 
# A B C D E F G H I J K L M N O P Q R S T U V W X Y Z