Song name
# A B C D E F G H I J K L M N O P Q R S T U V W X Y Z

Misc Unsigned Bands - Don Broco - Thug Workout tab

Tabbed by: obsidion 123
Email:asmnatty@hotmail.co.uk

Tuning: Drop D (DADGBE)

e|-------------------------------------------------------|
B|-------------------------------------------------------|
G|--------4------------4---------------------------------|
D|--2-3-2---2-3--2-3-2-----------------------------------|
A|--3-3-2---2-3--2-3-2-----------------------------------|
D|--2-3-2---2-3--2-3-2-----------------------------------|
repeat

e|----------------------------------------------------------------------------|
B|----------------------------------------------------------------------------|
G|----------------------------------------------------------------------------|
D|--------------------3-------------------------------------------------------|
A|--5-3-5-5-5-5-3-5-3---5----0-3-5--------------------------------------------|
D|----------------------------------------------------------------------------|

e|-------------------------------------------------------|
B|-------------------------------------------------------|
G|--------4----------------------4-------4---------------|
D|--2-3-2---2-3-----------2-3-2---2-3-2----2-0-----------|
A|--3-3-2---2-3-----------2-3-2---2-3-2------------------|
D|--2-3-2---2-3-22222222--2-3-2---2-3-2------------------|

e|----------------------------------------------------------------------------|
B|----------------------------------------------------------------------------|
G|---------------------2------------------------------------------------------|
D|--4-2-4-4-4-4-2-4-2-----4-0-2-4-4-4-0-2-4-0---------------------------------|
A|----------------------------------------------------------------------------|
D|----------------------------------------------------------------------------|

e|---------------------------------------------------------------------------|
B|---------------------------------------------------------------------------|
G|--9-10-9-7-7-9-9-----------------------------------------------------------|
D|---------------------------------------------------------------------------|
A|---------------------------------------------------------------------------|
D|---------------------------------------------------------------------------|
X2
Tap to rate this tab
# A B C D E F G H I J K L M N O P Q R S T U V W X Y Z