Song name
# A B C D E F G H I J K L M N O P Q R S T U V W X Y Z

Misc Unsigned Bands - Excel 21 - When Were Sober tab

"Due to popular demand" here's the tab to my band EXcel 21's single When We're Sober. If 
you havn't already, check it out here and download it. This song's reasonably straight 
forward and fun to play. :) Lyrics by Joe Fahy. http://www.reverbnation.com/show/6847482

intro

e -0-0-0-0-0-0-0-------------|
B -0-0-0-0-0-0-0-------------|
G -8-9-4-8-9-4-4-----repeat--|
D -x-x-x-x-x-x-x-------------|
A -6-7-2-6-7-2-2-------------|
E ---------------------------|

verse

e ---0---0-0-0-0-0---0---0-0-0-0-0-----0~~---0~~---0---0-0-0-0-0----------|
B ---0---0-0-0-0-0---0---0-0-0-0-0-----0~~---0~~---0---0-0-0-0-0----------|
G ---4---4-4-4-4-4---4---4-4-4-4-4-----1~~---3~~---4---4-4-4-4-4--repeat--|
D ---4---4-4-4-4-4---4---4-4-4-4-4-----2~~---4~~---4---4-4-4-4-4----------|
A -2---2-------------------------------2~~---4~~-2---2--------------------|
E -----------------4---4-------------0~~~~-2~~~~--------------------------|

1. She said it will never last and you look back to the past, you just don't wanna be alone
   So you pick up the phone and you try ringing home but no one's there to answer your calls
2. Doors open and close again I feel like I've been missing a friend in you.
   So maybe *When We're Sober* we might try talk things over. We could be   okay in the end.


Pre-chorus

e--0~---0--0-----------------------------------------|
B--0~---0--0-----------------------------------------|
G--4~---1--3-----------------------------------------|
D--4~---2--4-----------------------------------------|
A-------2--4-444444444444444-------------------------|
E-4---0----2-222222222222222-------------------------|
             |-vamped--------------------------------|

1. Does anyone care at all?
2. We could be okay in the end.

Chorus
e---0~---0---0-0-0---0~---0---0-0-0---------------------------|
B---0~---0---0-0-0---0~---0---0-0-0---------------------------|
G---4~---4---4-4-4---4~---4---4-4-4-6-8-4-6-8-4-4----repeat---|
D---4~---4---4-4-4---4~---4---4-4-4---------------------------|
A-2----2---2---2-2------------------4-6-2-4-6-2-2-------------|
E------------------4----4---4---4-4---------------------------|

1&2 Round and round this tiny town. Can I find a way out?
    Round and round this lonely town. Will I find a way out?

Hang on B chord below for Pre-bridge
____oo
||||||
|1||||
||||||
||34||

Refrain same as intro

Link
                                          < < < < <
e---------------------------------------------------|
B-0-0-0-0-0-0-0-0-0-0-0-0-0-0-0-0-0-0-0-0-0-0-0-0-0-|
G-3/4-4-4-4-4-3/4-3-x-x-x-x-3/4-4-4-4-4-4-3-3-3-4-4-|
D-------------------4-4-4-4-------------------------|
A---------------------------------------------------|
E---------------------------------------------------|

Final Chorus is same as Pre-Bridge

1. Round and round. Round and round. (repeat)
2. " " " " " " " "  This lonely town.
Outro

e--------------------------------------------------|
B-o~~-0-0~-----------------------------------------|
G-3/4-3-x~-----------------------------------------|
D-------4~-----------------------------------------|
A--------------------------------------------------|
E--------------------------------------------------|
Tap to rate this tab
# A B C D E F G H I J K L M N O P Q R S T U V W X Y Z