Song name
# A B C D E F G H I J K L M N O P Q R S T U V W X Y Z

Misc Unsigned Bands - The Graham Situation - Rain tab

So this is my first tab ever, pretty sure it's correct. If not, correct me!
Standard tuning

/ = slide
p = pull off
h = hammer on
~ = let ring

Intro:

* Drum and bass intro, then:

Guitar 1:

  Dm/A                                        Am
e|-0----------0------------|-0--------------------------------|
B|-6-----6-------6---------|-1----1p0-------------------------|
G|-7--------7-------7------|-2--------2-----------0h2---------|
D|-7-----------------------|-2----------------0h2-------------|   x2
A|-0-----------------------|-0--------------------------------|
E|-------------------------|----------------------------------|

Guitar 2:

* Just play the chords and let them ring, last beat before verse, play this:

e|--------------|-0~--------------|
B|--------------|-6~--------------|
G|--------------|-7~--------------|
D|--------------|-7~--------------|
A|--------------|-0~--------------|
E|--0-0-1-0-4-0-|-----------------|

Verse part 1:

* Just strum chords once and let ring. Figure out occasional picking patterns yourself, 
they're usually the same as the intro.
*After "....before the first cut", Guitar 2 plays this fill again: E|-0-0-1-0-4-0-|

Dm/A                                                       Am
And I could smell the rain before it fell to wash away the snow
Dm/A                                                     Am
And I bet that she could feel the pain before the first cut


Verse part 2:

* Guitar 2 plays same fill at the end of every beat
* Guitar 1 plays this riff (vox melody dub):

e|-5-5-5-5-5--------------------------------|
B|-------------6----6--8--5----5--5--3/5----|
G|------------------------------------------|
D|------------------------------------------|
A|------------------------------------------|     x2
E|------------------------------------------|


Dm/A                                              Am
You took what you wanted from my heart and now its yours
Dm/A                                              Am
You took what you needed and you kept it behind bars


Outro:
Let chords ring, at the very end guitar 1 plays this:

e|------------------------0-----------------------------|
B|---6-----------------------------6--------------------|
G|------7----7-----------------------------7------------|
D|--------------7-----7------7--------7-------7---------|
A|-0------0--------0------------0--------0--------------|
E|------------------------------------------------------|

End on a Dm/A chord.
Tap to rate this tab
 
# A B C D E F G H I J K L M N O P Q R S T U V W X Y Z