Song name
# A B C D E F G H I J K L M N O P Q R S T U V W X Y Z

Misc Unsigned Bands - Cfjk - Let It Burn tab

This song is in Standard Tuning. (EADGBE). It is 126 BPM. There are 2 parts to the song
I-Clean
II-Distortion

Key:
h - hammer-on
p - pull-off
* - harmonic
/ - slide up
\ - slide down
b - bend
r - release bend

                Intro(played during intro solo)
  e) -----------------------------------------------|
  b) -----------------------------------------------|
I g) -----------------------------------------------|
  d) -----------------------2--4--6----0------------|
  a) -----2--0-------------4--4--4----0-------------|
  e) ----3--1---------------------------------------|

                          Intro solo
    e) -15h17/19-14------------------------------------|
    b) ------------15----------------------------------|
II  g) --------------16--16h18p16\14--14---------------|
    d) -----------------------------16---------2-------|
    a) ----------------------------------------2----5--|
    e) ----------------------------------------0-------|

                          Intro solo cont.
    e) ----------------11p9/7--------------------------------|
    b) --------13p11/9-------8b9r8/3-------------20b22r20----|
II  g) 15p13/11---------------------5------------------------|
    d) -----------------------------5------------------------|
    a) -----------------------------3---3-3h5p0/7------------|
    e) ------------------------------------------------------|

                          Intro solo cont.
    e) ----------------|
    b) ----------------|
II  g) ----------------|
    d) ----------------|
    a) 11b13r11\7------|
    e) ----------------|
Tap to rate this tab
# A B C D E F G H I J K L M N O P Q R S T U V W X Y Z