Song name
# A B C D E F G H I J K L M N O P Q R S T U V W X Y Z

Misc Unsigned Bands - Miracle Of Sound - Sovngarde Song tab

E|----0--0-1-0---------------------0--0-1-0------3--5-----------------------|
B|--------------1---------0--1---------------1---------0--1-----------------|
G|---------------2--0--2--0--2----------------2--------0--2-----------------|
D|--------------------------------------------------------------------------|
A|--0----------------------------0------------------------------------------|
E|--------------------------------------------------------------------------|

E|----0--0-1-0------------------------------3--5----------------------------|
B|-------------1---------0--1------0-1--0---------0--1----------------------|
G|--------------2--0--2--0--2----2-------2--------0--2----------------------|
D|--------------------------------------------------------------------------|
A|--0-----------------------------------------------------------------------|
E|--------------------------------------------------------------------------|

thats the intro, and the chords are as follows:

         Am                       Em        Am
From the mists of the mountains a deafening call
                      Em
Bellows down over the plains
     Am                  Em           Am
On a host of battle-worn ears it does fall
                        Em          Am
Pushing out through the thunder and rain
      Am                         Em           Am
These men of the north they have suffered too long
                             Em
The anger it swells in their veins
       Am                     Em        Am
Of the spirited roars of lost warriors' songs
        Em                  Am
Distant echoes are all that remain


       Dm          Am
And my voice is my violence
          Dm           Am
Clear the sky's frozen tears
       Dm            Am
And no more we'll be silent
          Em
With this Sovngarde song in our ears


       Am
And we stand tall
            Em
Sons of the snow
        Am
We will not fall
            Em
Under these blows
        Am
For our hearts they are hardy
    Em
Our spirits are strong
        Am                Em
And our voices are lifted into
               Am
This Sovngarde song

Am, C, G, D X2

Am             C         G        D
   Conquer the anger and ravenous rage!
Am           C            G D
   Make it a part of your power
Am           C             G           D
   Pummeling down let your bloodlust engage!
Am            C               G D
   Under your force they will cower
Am             C       G           D
   Feeling the fury so pure and so bright
Am              C            G D
   Breaking the bonds of surrender
Am           C            G            D
   Under the moon for our home we will fight
Am             C        G    D
   And we will die to defend her


       Dm          Am
And my voice is my violence
          Dm           Am
Clear the sky's frozen tears
       Dm            Am
And no more we'll be silent
          Em
With this Sovngarde song in our ears

       Am
And we stand tall
            Em
Sons of the snow
        Am
We will not fall
            Em
Under these blows
        Am
For our hearts they are hardy
    Em
Our spirits are strong
        Am                Em
And our voices are lifted into
               Am
This Sovngarde song


      Am
These perilous peaks
       Em         Am
On the rim of the sky
  Am
I move in the midst
       Em             Am
Of the clouds passing by
       Am
At the top of the world
     Em            Am
On a white doomful day
       Am          Em          Am
Men of wisdom will show me the way

       Am
And we stand tall
            Em
Sons of the snow
        Am
We will not fall
            Em
Under these blows
        Am
For our hearts they are hardy
    Em
Our spirits are strong
        Am                Em
And our voices are lifted into
               Am
This Sovngarde song

kinda new at this so let me know what you think...
Tap to rate this tab
# A B C D E F G H I J K L M N O P Q R S T U V W X Y Z