Song name
# A B C D E F G H I J K L M N O P Q R S T U V W X Y Z

Misc Unsigned Bands - Liberty Lies - The Wire tab

          --------------------------------------------------------------------------


                                  The Wire - Liberty Lies
          ----------------------------------------------------------------------------


Tabbed by: Josh Pritchett
Email:JP848_49@live.com

Tuning: Drop C#/Db

Intro

eb|----------------------------------------------------------------------------|
Bb|----------------------------------------------------------------------------|
Gb|----------------------------------------------------------------------------|
Db|---4---2---4-------------------------------0---2----------------------------|
Ab|---4---2---4---0-h-2-p-0-------------------0---2----------------------------|
Db|---4---2---4-------------h-4-p-0-h-2-p-0---0---2----------------------------|

eb|----------------------------------------------------------------------------|
Bb|----------------------------------------------------------------------------|
Gb|---------------2------------------------------------------------------------|
Db|---4---2---4---2---4---2-----------------0---2------------------------------|
Ab|---4---2---4---0---4---2--------X3-Then--0---2------------------------------|
Db|---4---2---4-------4---2-----------------0---2------------------------------|

Verse 1 & 2


eb|----------------------------------------------------------------------------|
Bb|----------------------------------------------------------------------------|
Gb|----------------------------------------------------------------------------|
Db|---4---2---0---2-(push)-2---------------------------------------------------|
Ab|---4---2---0---2--------2---X2----------------------------------------------|
Db|---4---2---0---2--------2------4---2---0---2-(contin* picking)--------------|

Pre Chorus

eb|----------------------------------------------------------------------------|
Bb|----------------------------------------------------------------------------|
Gb|----------6---------9-----------4---------------4---------------4-----------|
Db|----------6---------9-----------4-----------4---------------4---------------|
Ab|------4----------7----------2-----------0---------------2-------------------|
Db|---4----------7---------2-----------0---------------2-----------------------|

Chorus

eb|----------------------------------------------------------------------------|
Bb|----------------------------------------------------------------------------|
Gb|---------------2------------------------------------------------------------|
Db|---4---2---4---2---4---2-----------------0---2------------------------------|
Ab|---4---2---4---0---4---2--------X3-Then--0---2------------------------------|
Db|---4---2---4-------4---2-----------------0---2------------------------------|

Bridge

eb|----------------------------------------------------------------------------|
Bb|----------------------------------------------------------------------------|
Gb|---------------2---------------2---------------2----------------2-----------|
Db|-----------2---------------2---------------0----------------2---------------|
Ab|-------4---------------4---------------4----------------4-------------------|
Db|---4---------------2---------------0----------------2-----------------------|





************************************

| /   slide up
| \   slide down
| h   hammer-on
| p   pull-off
| ~   vibrato
| +   harmonic
| x   Mute note
| b   Bend
| pb  Pre-bend
| br  Bend release
| pbr Pre-bend release
| brb Bend release bend
Tap to rate this tab
 
# A B C D E F G H I J K L M N O P Q R S T U V W X Y Z