Song name
# A B C D E F G H I J K L M N O P Q R S T U V W X Y Z

Misc Unsigned Bands - Whitefield - Bad Romance tab

whitefield - bad romance (lady gaga cover)
Ciaran Qute - guitar vocals
Jimmy B - bass vocals
Kurk heathfield - drims vocals

intro:
let the bass do 4 bars and come in then the drums come in
E|-0----------------------------------------------|
B|-0----------------------------------------------|
G|-2----------------------------------------------|
D|-2--------------------------2-2-3-2-------------|
A|-0----------------------0-0---------3-3-0-3-0-3-|
E|------------------------------------------------|

verse: Amaj C
E|-0-| |-3-|
B|-2-| |-3-|
G|-2-| |-5-|
D|-2-| |-5-|
A|-0-| |-3-|
E|---| |---|

pre-chorus:
E|-----0----------------------0--------|
B|----2-----------------------0--------|
G|---2------------------------2--------|
D|--2----------------2--------2--------|
A|-0--------0--------0--------0--------|
E|-------------------------------------|

chorus: F G Amaj C 
E|-1-| |-3-| |-0-| |-3-|
B|-1-| |-3-| |-2-| |-3-|
G|-2-| |-3-| |-2-| |-5-|
D|-3-| |-5-| |-2-| |-5-|
A|-3-| |-5-| |-0-| |-3-|
E|-1-| |-3-| |---| |---|

intro:
verse:
pre-chorus:
chorus:
pre-choreus: (X2)
chorus:
chorus:
Intro:

thank you
Tap to rate this tab
 
# A B C D E F G H I J K L M N O P Q R S T U V W X Y Z