Song name
# A B C D E F G H I J K L M N O P Q R S T U V W X Y Z

Misc Unsigned Bands - Warrington Station - Dear John tab

Dear John
Drop-A Tuning

intro
e|---------------------------------------------------------|
b|---------------------------------------------------------|
g|---------------------------------------------------------|
d|----7~---------------------------------------------------|
a|-3~-7~----7~---------------------------------------------|
e|-3~-5~-0~-7~---------------------------------------------|
a|-3~----0~-7~---------------------------------------------|

verse
e|---------------------------------------------------------|
b|---------------------------------------------------------|
g|---------------------------------------------------------|
d|-----7-77777777777---------------------------------------|
a|-----7-77777777777---------------------------------------|
e|-333-5-55555555555-000-7-77777777777---------------------|
a|-333---------------000-7-77777777777---------------------|
*palm muted

intro again
e|---------------------------------------------------------|
b|---------------------------------------------------------|
g|---------------------------------------------------------|
d|----7~---------------------------------------------------|
a|-3~-7~----7~---------------------------------------------|
e|-3~-5~-0~-7~---------------------------------------------|
a|-3~----0~-7~---------------------------------------------|

gay
e|---------------------------------------------------------|
b|---------------------------------------------------------|
g|---------------------------------------------------------|
d|---------------------------------------------------------|
a|-77880~--88773~------------------------------------------|
e|-77880~--88773~------------------------------------------|
a|-77880~--88773~------------------------------------------|

chorus
e|---------------------------------------------------------|
b|---------------------------------------------------------|
g|---------------------------------------------------------|
d|---------------------------------------------------------|
a|-101010101010101077777555-1010101010101010777771087------|
e|-8-8-8-8-8-8-8-8-77777555-8-8-8-8-8-8-8-8-777771087------|
a|-8-8-8-8-8-8-8-8-77777555-8-8-8-8-8-8-8-8-777771087------|

build-up
e|---------------------------------------------------------|
b|---------------------------------------------------------|
g|---------------------------------------------------------|
d|---------------------------------------------------------|
a|-0~------------------------------------------------------|
e|-0~------------------------------------------------------|
a|-0~------------------------------------------------------|

br3@kd0wn
e|---------------------------------------------------------|
b|---------------------------------------------------------|
g|---------------------------------------------------------|
d|---------------------------------------------------------|
a|-000-0-00-0----------------------------------------------|
e|-000-0-00-0----------------------------------------------|
a|-000-0-00-0----------------------------------------------|
*palm mute

triplet gay
e|---------------------------------------------------------|
b|---------------------------------------------------------|
g|---------------------------------------------------------|
d|---------------------------------------------------------|
a|-77777-88888-0-000---88888-77777-3-333-------------------|
e|-77777-88888-0-000---88888-77777-3-333-------------------|
a|-77777-88888-0-000---88888-77777-3-333-------------------|
*palm mute

gay
e|---------------------------------------------------------|
b|---------------------------------------------------------|
g|---------------------------------------------------------|
d|---------------------------------------------------------|
a|-77880~--88773~------------------------------------------|
e|-77880~--88773~------------------------------------------|
a|-77880~--88773~------------------------------------------|
hold extra 4 counts


*clean guitars
e|---------------------------------------------------------|
b|---------------------------------------------------------|
g|---------------------------------------------------------|
d|---------------------------------------------------------|
a|---10---10---7---5---10---10---7---10-8-7----------------|
e|--8--8-8--8-7-7-5-5-8--8-8--8-7-7------------------------|
a|-8----8----7---5---8----8----7---7-----------------------|

repeat ^ twice after but distorted then play chorus two times so

e|---------------------------------------------------------|
b|---------------------------------------------------------|
g|---------------------------------------------------------|
d|---------------------------------------------------------|
a|---10---10---7---5---10---10---7---10-8-7----------------|
e|--8--8-8--8-7-7-5-5-8--8-8--8-7-7------------------------|
a|-8----8----7---5---8----8----7---7-----------------------|

chorus
e|---------------------------------------------------------|
b|---------------------------------------------------------|
g|---------------------------------------------------------|
d|---------------------------------------------------------|
a|-101010101010101077777555-1010101010101010777771087------|
e|-8-8-8-8-8-8-8-8-77777555-8-8-8-8-8-8-8-8-777771087------|
a|-8-8-8-8-8-8-8-8-77777555-8-8-8-8-8-8-8-8-777771087------|

Tap to rate this tab
# A B C D E F G H I J K L M N O P Q R S T U V W X Y Z