Song name
# A B C D E F G H I J K L M N O P Q R S T U V W X Y Z

Misc Unsigned Bands - Dope Flood - Uncertain tab

Uncertain
Dope Flood
A Planet On Four Legs
2011

Full Song (All the Rhythm Parts, without the lead guitar part)



INTRO + VERSEs :

D --------------------------------------|
A --------------------------------------|
F --------------------------------------|
C --------------------------------------|
G -0-0-0-0--0--0-2-3-0-3-5-3------------|
C -0-0-0-0--0--0-2-3-0-3-5-3------------|

CHORUS  :

D -------------------------------------------------------------------|
A -------------------------------------------------------------------|
F  ------------5-7-0--0-5-7-5----------------------------------------|
C -5~~~-0---5-7-0--0-5-7-5----5~~~-0-------3-5-3-5-3--3--------------|
G -3~~~-0-------------------------3~~~-0---3-5-----------5--5--------|
C -3~~~-0----------------------0--3~~~-0-----------------------------|

BRIDGE :

D -------------------------------------------|
A -------------------------------------------|
F -------------------------------------------|
C -0-----------~0-------0--------------------|
G -0--12/slide-~0--2-3--0--12/slide--3-2-----|
C -0--12/slide-~0--2-3--0--12/slide--3-2-----|

BREAK after the Lead part

D --------------------------------------|
A --------------------------------------|
F --------------------------------------|
C --------------------------------------|
G -0~~~~~~~~~~~~~~~~~~~~~~~-------------|
C -0~~~~~~~~~~~~~~~~~~~~~~~-------------| (After that play again the Intro Verse Riff + 
Chorus )

OUTRO :
D --------------------------------------|
A --------------------------------------|
F --------------------------------------|
C --------------------------------------|
G -0-0-0-0--0--0-2-3-0-3-5-3------------|
C -0-0-0-0--0--0-2-3-0-3-5-3------------|
Tap to rate this tab
# A B C D E F G H I J K L M N O P Q R S T U V W X Y Z