Song name
# A B C D E F G H I J K L M N O P Q R S T U V W X Y Z

Misc Unsigned Bands - Rebel Band - Kingdom tab

"Kingdom"
Rebel Band
Rebel Band EP

Standard Tuning: EADGBe


[Rhythm Guitar]

Intro:

D-A-D-A-E


1st Verse:

D
I am an offering
                     A
I am a sacrifice to You
D
I will do fervently
                       A
Everything You tell me to


Pre-Chorus:

E
And I will serve You all my life
Bm
In everything I'll be light
       D
In this world
       E
In this world


Chorus:

A
Your kingdom come
D
Your will be done
F#m-E                    D
On earth as it is in heaven

{Lead Guitar: Intro Riff}


2nd Verse:

D
I am Your mouth piece
                       A
Willingly will I speak forth
D
To make disciples
                          A
Of all the nations of the earth


Pre-Chorus:

E
And I will serve you all my life
Bm
In everything I'll be light
       D
In this world
       E
In this world


Chorus:

A
Your kingdom come
D
Your will be done
F#m-E                    D
On earth as it is in heaven
A
Your kingdom come
D
Your will be done
F#m-E                    D
On earth as it is in heaven

Heaven
A    D
Heaven
F#m-E    D--
And heaven


Bridge:

A
Let the church resound in praise
D
To worship You with no refrain
F#m-E                    D
To go to all the world in Jesus name
A
Let the church resound in praise
D
To worship You with no refrain
F#m-E                    D
To go to all the world in Jesus name


Chorus:

A
Your kingdom come
D
Your will be done
F#m                      D
On earth as it is in heaven

{Drum Roll}

A
Your kingdom come
D
Your will be done
F#m-E                    D
On earth as it is in heaven

{Lead Guitar: Intro Riff to End}



----------------------------------------------------------



[Lead Guitar]


Intro:
(First Part)
e|-------------------------------------------------|
B|-------------------------------------------------|
G|-9-9-----------11----9-9-----------9-------------|
D|-----11-11-9-9-x---------11-11-9-9-x-------------|
A|---------------9-------------------7-------------|
E|-------------------------------------------------|

(Second Part)
e|-------------------------------------------------|
B|-------------------------------------------------|
G|-9-9-----------11-13/14-14-14----9-9-----------9-|
D|-----11-11-9-9-x--xx-xx-xx-xx--------11-11-9-9-x-|
A|---------------9--11/12-12-12------------------7-|
E|-------------------------------------------------|
Tap to rate this tab
# A B C D E F G H I J K L M N O P Q R S T U V W X Y Z