Song name
# A B C D E F G H I J K L M N O P Q R S T U V W X Y Z

Misc Unsigned Bands - Voltera - Knees tab

                               Voltera
                                Knees


---------------------------------------------------|
---------------------------------------------------|
---------------------------------------------------|
---------------------------------------------------|
--4--4-4-7-5--4--4-4-7-5--4--4-4-7-5--4--4-4-7-10--|
--4--4-4-7-5--4--4-4-7-5--4--4-4-7-5--4--4-4-7-10--|

--------------------------|----------------------|
--------------------------|----------------------|
--------------------------|----------------------|
--------------------------|----------------------|
--44--44---5--44---55--5--|--44--44---44--44-5~--|
--44--44---5--44---55--5--|--44--44---44--44-5~--|
  ..  ..   .  ..   ..  .     ..  ..   ..  .. 

---------------------------------------------------------|
---------------------------------------------------------|
---------------------------------------------------------|
--4--4-4-/7-5--4--4-4-/7-5--4--4-4-/7-5--4--4-4-/7-10----|
--4--4-4-/7-5--4--4-4-/7-5--4--4-4-/7-5--4--4-4-/7-10----|x2
  .  . .       .   . .      .  . .       .  . .

-----------------------|----------------------|
----------------10--10-|----------------------|
-----------------------|-------------4--------|
--9~-10-9--9--9--------|--4\--4\--4\---7------|
-----------------------|--4\--4\--4\-----5-4--|

---------------------------------------------------------|
---------------------------------------------------------|
---------------------------------------------------------|
--4--4-4-/7-5--4--4-4-/7-5--4--4-4-/7-5--4--4-4-/7-10----|
--4--4-4-/7-5--4--4-4-/7-5--4--4-4-/7-5--4--4-4-/7-10----|x2
  .  . .       .  . .       .  . .       .  . .

-------------------------------------------------------|
-------------------------------------------------------|
-------------------------------------------------------|
-------------------------------------------------------|
--2-4-5-2-44444--2-4-5-2-44444--2-4-5-2-44444--444444--|
--2-4-5-2-44444--2-4-5-2-44444--2-4-5-2-44444--444444--|
  . . . . .....  . . . . .....  . . . . .....  ......

---------------------------|
---------------------------|
---------------------------|
-------------------0-------|
--2-4-5-2-44444--2---2-----|
--2-4-5-2-44444--------5-4-|
  . . . . .....   
--------------------------------------------------|
--------------------------------------------------|
--------------------------------------------------|
-----------------------------------------0--------|
--2-4-5-2-44444--444444--2-4-5-2-44444-2---2------|
--2-4-5-2-44444--444444--2-4-5-2-44444-------5-4--|
  . . . . .....  ......  . . . . .....
---------------------------------------------------------|
---------------------------------------------------------|
---------------------------------------------------------|
--4--4-4-/7-5--4--4-4-/7-5--4--4-4-/7-5--4--4-4-/7-10----|
--4--4-4-/7-5--4--4-4-/7-5--4--4-4-/7-5--4--4-4-/7-10----|x4
  .  . .      .   . .       .  . .       .  . .
 
. = palm mute
/& \ = slide
Tap to rate this tab
# A B C D E F G H I J K L M N O P Q R S T U V W X Y Z