Song name
# A B C D E F G H I J K L M N O P Q R S T U V W X Y Z

Misc Unsigned Bands - Megan D - Work It Out tab

-------------------------------------------------------------------------------
                             WORK IT OUT - MEGAN D
-------------------------------------------------------------------------------
Tabbed by: megan davidson
Email: nnegan101@gmail.com

Tuning:
 standard (capo 2)
e|-------3------3-------3--------3------3------3------3------3------3--------|
B|-------3------3-------3--------3------3------3------3------3------3--------|
G|-------0------0-------0--------0------0------0------0------0------0--------|
D|-------------------------------------------------2-------------------------|
A|----------------------------2-------3-----3-------------3-------2----------|
E|-3----------3------3-------------------------------------------------------|

e|------3-------3-------3-------3------3-----3-------3-----------------------|
B|------3-------3-------3-------3------3-----3-------3-----------------------|
G|------0-------0-------0-------0------0-----0-------0-----------------------|
D|-----------0---------------------------------------------------------------|
A|---2--------------2--------0------0------0---------------------------------|
E|------------------------------------------------3--------------------------|

that's it, all the way through :-)

lyrics:

Youíve got this kinda smile
That doesnít take a while
To spread from your face to mine
And youíve got these sort of eyes
That never look surprised
Like they see right through me
And I wouldnít be too surprised
If you had my life planned out
Till I was ninety five
And I find it hard to tell
But I think you, think you
Know me well
And Iím just waiting for the day
You set me free
The day you find out I will never be
Who you want me to be

You think youíve got me all worked out
You think youíve got me all worked out but you donít
You think youíve got me all figured out but
You have no idea youíre talking about

When you go out people stare
Youíd take me everywhere
But I canít take you anywhere
I acted like a liked you
You acted like you liked me too
Howís that even fair
But itís all different now
When I go out I find it easier
To pretend that youíre not there
Some people might say itís just a phase
But I know you too well to think
That youíd ever change youíre ways
You planned out yesterday and you planned today
And that was okay
Just keep pretending you donít know me
And Iíll keep not caring a bit about
Anything you say

You thought you had me all worked out
You thought you had me all worked out but you didnít
You thought you had me all figured out
But you had no idea what you were talking about

I saw you just yesterday and you said hey
Thatís all you had to say
For me to feel like everything
Was okay
And thatís when I worked it out
I thought you had me all figured out
But you had no idea what I was talking about
Youíve got that kinda smile
That doesnít take a while
To spread from your face to mine
And youíve got these sort of eyes
That never look surprised
Like they see right through me
Can we go back in time?
Just for a day
Would that be okay?
And youíll pretend that you still know me
And Iíll pretend that I care a lot about
Everything you say

I thought you had me all worked out
I thought you had me all worked out but you didnít
I thought you had me all figured out
But you had no idea what I was talking about.
Tap to rate this tab
# A B C D E F G H I J K L M N O P Q R S T U V W X Y Z