Song name
# A B C D E F G H I J K L M N O P Q R S T U V W X Y Z

Misc Unsigned Bands - Monkey Temple - Anumati tab

PM - Palm mute
/  - Slide
h  - Hammer on
P  - Pull off
^  - bend note upwards
x  - mute
hm - Natural Hamrmonic

-Intro -

  C                    B
  PM ---------|        PM ---------------------------|
||--------------0----------------0--------------------|
||--------------0----------------0--------------------|
||-9--9--9--9---9-------8-8-8-8--8--------------------|
||-10-10-10-10--10------9-9-9-9--9--------------------|
||-10-10-10-10--10------9-9-9-9--9--------------------|
||-8--8--8--8---8-------7-7-7-7--7--------------------| 4 Times Repeat

-First Riff-

||-------------------------------------------------|
||-------------------------------------------------|
||----------9----9-12----12-------9----------------|
||-------12-------------------------------12-10----|
||----10------10------10----10------10-------------|
||--8----------------------------------------------|

Full tab on link below , copy paste it and rock on \m/
http://nepchat.com/forum/index.php/topic,41.msg2664/topicseen.html#msg2664
Tap to rate this tab
 
# A B C D E F G H I J K L M N O P Q R S T U V W X Y Z