Song name
# A B C D E F G H I J K L M N O P Q R S T U V W X Y Z

Misc Unsigned Bands - Sexy Simbrara - The Three Blind Mice tab

band : sexy simbrara
song : the three blind mice


   here before you is the instrumental masterpiece by the sexy 
simbrara intitled the three blind mice . enjoy


-------------------------------------------------------------------
---------------------------------1-1p0---0h2-------1-1p0---0h1-----
---------------0-------0-------0-------2-----0-0-0-------2-----0-0-
--2p0---2p0------3-3p2---3-3p2-------------------------------------
------3-----3------------------------------------------------------
-------------------------------------------------------------------

------------------------------------------------------------1---1-
--------------------------1---1-------------------------------3---
--------*-------0-------0---3---3p1---------------0-------0-------
--2p0---*-0h1h3---0h1h3-------------0-3p0---0h1h3---0h1h3---------
------3-----------------------------------2-----------------------
------------------------------------------------------------------

--------1----------------------------------------------------------
--3p1p0-------------------------------------------1-1p0---0h1------
--------------------------------0-------0-------0-------2-----0-0-0
----------------4---2p0---2p0-----3-3p2---3-3p2--------------------
------------------1-----3-----3------------------------------------
----------0h2h3----------------------------------------------------

------------------------
--1-1p0---0h1-----------
--------2-----0-0-------
------------------2p0---  
----------------------3-
------------------------
now is where youll realy have to start improvising using heavy 
feedback and the whammy bar on every note. sorry but it was pretty 

hard to transcribe
Tap to rate this tab
# A B C D E F G H I J K L M N O P Q R S T U V W X Y Z