Song name
# A B C D E F G H I J K L M N O P Q R S T U V W X Y Z

Misc Unsigned Bands - Exit 181 - Spring Break tab

band : exit 181
song : spring break


                                 ~INTRO~
e|----------------------------------|---------------------------------
B|----------------------------------|-------------------------------^-
G|-11-11-11-12-11----9-9-9-7-7-7--7-|-11-11-11-12-11----9-9-9-7-7-7-9-
D|----------------12-------------9--|----------------12---------------
A|----------------------------------|---------------------------------
E|----------------------------------|---------------------------------

                         ~MAIN RIFF~
e|------------------------------------------------------------|
B|------------------------------------------------------------|
G|------------------------------------------------------------|
D|-7-7-7-7-7-7-7-----------------4-4-4-4-4-4-4----------------|
A|-5-5-5-5-5-5-5--7-7-7-7-7-7-7--2-2-2-2-2-2-2--5-5-5-5-5-5-5-|
E|----------------5-5-5-5-5-5-5-----------------3-3-3-3-3-3-3-|


thats all i got, this is my friends bros band, so u dudes that run
the site can put it in misc your if u want.
Tap to rate this tab
# A B C D E F G H I J K L M N O P Q R S T U V W X Y Z