Song name
# A B C D E F G H I J K L M N O P Q R S T U V W X Y Z

Misc Unsigned Bands - Infamous - Forever Her Nightmare tab

---------------------------------------------------------------------------
                             Forever Her Nightmare - Infamous
---------------------------------------------------------------------------


i got bored so i tabbed one of my band's songs :D

http://www.facebook.com/InfamousTheBand


Intro/Verse
e|----------------------------------------------------------------------|
B|----------------------------------------------------------------------|
G|----------------------------------------------------------------------|
D|-4--------------7-6-----4---------------7-7h9-6h7---------------------|
A|-4----5p4---------------4-----5p4-------------------------------------|
D|-4-4-4----4-4-7-----6h7-4-4-4-----4-4-7-------------------------------|
     . .    . .             . .     . .
e|--------------------------------------------------------|----------------|
B|--------------------------------------------------------|----------------|
G|--------------------------------------------------------|----------------|
D|-0--------------7-6-----0---------------7-7h9-6h7---x4--|-4*4*4*4*--x2---|
A|-0----5p4---------------0-----5p4-----------------------|-4*4*4*4*-------|
D|-0-0-0----0-0-7-----6h7-0-0-0-----0-0-7-----------------|-4*4*4*4*-------|
     . .    . .             . .     . .

Chorus
e|------------------------------------------------------|
B|------------------------------------------------------|
G|------------------------------------------------------|
D|-77776666777777777777666677776666777766677777777777---|
A|-44444444444444444444444444444444000000000000000000---|
D|-44444444444444444444444444444444000000000000000000---|


e|-----------------------------------|
B|-----------------------------------|
G|--------9h11h13--------11h13h14----|
D|-9h11h12-------11h12h14------------|
A|-----------------------------------|
D|-----------------------------------|

verse 2
e|------------------------------------------------------------------|
B|------------------------------------------------------------------|
G|------------------------------------------------------------------|
D|-------------0~-----0----0----2~-4444444444447~----7----6----2----|x3
A|-0000000000000~--0000-0000-0002~-4444444444444~-4444-4444-4442----|
D|-0000000000000~--0000-0000-0002~-4444444444444~-4444-4444-4442----|
   ............    ...  ...  ...   ............   ...  ...  ...

e|----------------------------|
B|----------------------------|
G|----------------------------|
D|-4*4*4*4*--4*4*4*4*---------|
A|-4*4*4*4*--4*4*4*4*---------|
D|-4*4*4*4*--4*4*4*4*--4ph----|


Chorus
e|------------------------------------------------------|
B|------------------------------------------------------|
G|------------------------------------------------------|
D|-77776666777777777777666677776666777766677777777777---|
A|-44444444444444444444444444444444000000000000000000---|
D|-44444444444444444444444444444444000000000000000000---|


e|-----------------------------------|----------------|
B|-----------------------------------|----------------|
G|--------9h11h13--------11h13h14----|----------------|
D|-9h11h12-------11h12h14------------|--4~------------|
A|-----------------------------------|--4~------------|
D|-----------------------------------|--4~------------|

Clean interlude
e|------------------------------------------------------------------------|
B|------------------------------------------------------------------------|
G|------------------------------------------------------------------------|
D|--4-4-7p4-6-66-6h7---2-2-6p2-4-44-4h6--0-0-4p2-2-22-2h4---------x6------|
A|--4-4-4---4-44-4-----2-2-2---2-22-2----0-0-0---0-00-0-------------------|
D|--4-4-4---4-44-4-----2-2-2---2-22-2----0-0-0---0-00-0-------------------|


e|------------------------------------------------------|
B|------------------------------------------------------|
G|------------------------------------------------------|
D|-4----7--7p6----7---7h9--2----7--7p6----7---7h9--0~---|
A|-4-----------------------2-----------------------0~---|
D|-4--4--4-----44---4------2--2--2-----22---2------0~---|
      .  .     ..   .         .  .     ..   .
e|--------------------------------------------14-16-17-16-14---------------|
B|-----------------------------------14-15-17----------------17-15-14-15~--|
G|-----------------11-13-14-13-14-16---------------------------------------|
D|---------11-12-14--------------------------------------------------------|
A|-11-12-14----------------------------------------------------------------|
D|-------------------------------------------------------------------------|
   .  .  . .  .  .

e|-------------------------------------------------------------------------|
B|-------------------------------------------------------------------------|
G|-------------------------------------------------------------------------|
D|-4----7--7p6----7---7h9--2----7--7p6----7---7h9--0---7--7p6----7--7h9-2~-|
A|-4-----------------------2-----------------------0--------------------2~-|
D|-4--4--4-----44---4------2--2--2-----22---2------0--0-0-----00--0-----2~-|

solo (rhythm)
e|-----------------------------------------------------------------------|
B|-----------------------------------------------------------------------|
G|-----------------------------------------------------------------------|
D|-4------------------------------4----------------------7-7h9-6h7-------|
A|-4------------------------------4--------------------------------------|
D|-4--4-4-444-4-4-444-4-4-444-4-4-4--4-4-444-4-4-444-4-4-----------------|
      . . ... . . ... . . ... . .    . . ... . . ... . .

e|-----------------------------------------------------------------------|
B|-----------------------------------------------------------------------|
G|-----------------------------------------------------------------------|
D|-0------------------------------2222222277776666-----------------------|
A|-0------------------------------2222222277776666-----------------------|
D|-0--0-0-000-0-0-000-0-0-000-0-0-2222222277776666-----------------------|
      . . ... . . ... . . ... . .


e|-------------------------------------------------------------------------|
B|-------------------------------------------------------------------------|
G|-------------------------------------------------------------------------|
D|-4------4-----4-----4---4------4-----4-----7-7h9-6h7--0------0-----0-----|
A|-4------4-----4-----4---4------4-----4----------------0------0-----0-----|
D|-4--4-4-4-4-4-4-4-4-4-4-4--4-4-4-4-4-4-4-4------------0--0-0-0-0-0-0-0-0-|

e|---------------------------------------------------------------|
B|---------------------------------------------------------------|
G|---------------------------------------------------------------|
D|-2222222277776666--4--4-4-4--4-4-4--4-4-4--4-4-0--0-0-0--0-0---|
A|-2222222277776666--4--4-4-4--4-4-4--4-4-4--4-4-0--0-0-0--0-0---|
D|-2222222277776666--4--4-4-4--4-4-4--4-4-4--4-4-0--0-0-0--0-0---|

e|-------------------------------|
B|-------------------------------|
G|-------------------------------|
D|-2222222277776666--------------|
A|-2222222277776666--------------|
D|-2222222277776666--------------|

*vocal interlude*

back to the chorus (a little different)
e|---------------------------------------------------------------------|
B|---------------------------------------------------------------------|
G|----------------------------------9h11h13----------11h13h14----------|
D|-777766667777777777776666-9h11h12---------11h12h14-------------------|
A|-000000000000000000000000--------------------------------------------|
D|-000000000000000000000000--------------------------------------------|

e|------------------------------------------------------|
B|------------------------------------------------------|
G|------------------------------------------------------|
D|-77776666777777777777666677776666777766677777777777---|
A|-44444444444444444444444444444444000000000000000000---|
D|-44444444444444444444444444444444000000000000000000---|


e|-----------------------------------|
B|-----------------------------------|
G|--------9h11h12--------11h12h14----|
D|-9h11h12-------11h12h14------------|
A|-----------------------------------|

e|------------------------------------------------------------------|
B|------------------------------------------------------------------|
G|------------------------------------------------------------------|
D|-------------0~-----0----0----2~-4444444444447~----7----6----2----|x2
A|-0000000000000~--0000-0000-0002~-4444444444444~-4444-4444-4442----|
D|-0000000000000~--0000-0000-0002~-4444444444444~-4444-4444-4442----|
   ............    ...  ...  ...   ............   ...  ...  ...


e|------------------------------------------------------------------|
B|------------------------------------------------------------------|
G|------------------------------------------------------------------|
D|------------------------------2~-4444444444447~----7----6----2----|
A|-0000000000000~--0000-0000-0002~-4444444444444~-4444-4444-4442----|
D|-0000000000000~--0000-0000-0002~-4444444444444~-4444-4444-4442----|
   .............   .... .... ...   ............   ...  ...  ...

e|------------------------------------------------------------------|
B|------------------------------------------------------------------|
G|------------------------------------------------------------------|
D|-------------0~-----0----0----2~-4444444444447~----7----6----2----| repeat
A|-0000000000000~--0000-0000-0002~-4444444444444~-4444-4444-4442----| until
D|-0000000000000~--0000-0000-0002~-4444444444444~-4444-4444-4442----| fade
   ............    ...  ...  ...   ............   ...  ...  ...
Tap to rate this tab
 
# A B C D E F G H I J K L M N O P Q R S T U V W X Y Z