Song name
# A B C D E F G H I J K L M N O P Q R S T U V W X Y Z

Misc Unsigned Bands - Love Me Electric - Total Eclipse Of The Heart chords

Highlighted       Show chord diagrams
This is my first time making a tab. Hope this helps. :) :) :)

Intro
(this is really a piano part)
|------10---9---7---|
|----7----7---7---7-|
|-------------------|
|--9----------------| two times
|-------------------|
|-------------------|

|------9---7--------|
|----7---7---7-10---|
|-------------------|
|--7----------------| two times
|-------------------|
|-------------------|

^This part can be played up to the second "Turn around..." part

Bm
Turn around.. every now and then I get a little bit lonely and you're never coming round.
A
Turn around.. every now and then I get a little bit tired of list'ning to the sound of my tears.
D
Turn around.. every now and then I get a little bit nervou that the best of all 
the years have gone by.
C
Turn around.. every now and then I get a little bit terrified and then I see the look in your eyes.
F            Bb
Turn around, bright eyes.. every now and then I fall apart.
F            Bb                                           A                             
Turn around, bright eyes.. every now and then I fall apart.

      F#m             D           E                 A
And I need you now tonight and I need you more than ever
           F#m          D              E           A
and if you only hold me tight we'll be holding on forever.
          F#m               D                  E
And we'll only be making it right 'cause we'll never be wrong.
D                               E
Together we can take it to the end of the line.
     F#m                         B
Your love is like a shadow on me all of the time.
   A                            C#m
I don't know what to do and I'm always in the dark.
      F#m                        B
We're living in a powder keg and giving off sparks.
                  D           B            C#m     D
I really need you tonight, forever's gonna start tonight,
E
forever's gonna start tonight.

one strum each chord
A                      F#m               C#m                    D     D C#m
Once upon a time I was falling apart but now I'm only falling apart
        Bm                  E                       A
There's nothing I can do, a total eclipse of the heart

first solo
then lead does this while the rhythm chords are A F#m D E
|------------------------------|
|------------------------------|
|--14-14-14-14-13-14-16-14-13--|
|------------------------------|
|--12-12-12-12-11-12-14-12-11--| three times then
|------------------------------|

|------------------|
|------------------|
|--14-14-14-14-13\-|
|------------------|
|--12-12-12-12-11\-|
|------------------|

A                          F#m
Once upon a time there was light in my life 
    C#m                          D     D C#m
But now there's only love in the dark 
Bm
Nothing I can do 
  E                        A
A total eclipse of the heart

another piano part here
(transposed in guitar)
|---------------------10-9---------------|
|--10-9-10-12-10-9-10------10------------|
|-----------------------------9----------|
|-------------------------------12-11----|
|-------------------------------------12-|
|----------------------------------------|
 
second solo
|------------------------------------|
|------------------------------------|
|--4-6-7-7-7-7-7-6/7-9-9-7-7-6-6-4-4-|
|------------------------------------| twice then
|--2-4-5-5-5-5-5-4/5-7-7-5-5-4-4-2-2-|
|------------------------------------|

|----------------------------------------------|
|----------------------------------------------|
|--7-9-11-11-11-11-11-9/11-12-12-11-11-9-9-7-7-|
|----------------------------------------------|
|--5-7-9--9--9--9--9--7/9--10-10-9--9--7-7-5-5-|
|----------------------------------------------|

one strum per chord
F            Bb            Bb
Turn around, bright eyes.. every now and then I fall apart.
F            Bb            Bb                             A                            
Turn around, bright eyes.. every now and then I fall apart.

first part of the chorus are played on piano but you could just play the chords

      F#m             D           E                 A
And I need you now tonight and I need you more than ever
           F#m          D              E           A
and if you only hold me tight we'll be holding on forever.
          F#m               D                  E
And we'll only be making it right 'cause we'll never be wrong.
D                               E
Together we can take it to the end of the line.
     F#m                         B
Your love is like a shadow on me all of the time.
   A                            C#m
I don't know what to do and I'm always in the dark.
      F#m                        B
We're living in a powder keg and giving off sparks.
                  D           B            C#m     D
I really need you tonight, forever's gonna start tonight,
E
forever's gonna start tonight.

one strum each chord
A                      F#m               C#m                    D     D C#m
Once upon a time I was falling apart but now I'm only falling apart
        Bm                  E                       A
There's nothing I can do, a total eclipse of the heart

outro
Just play A F#m D E repeatedly for like five or more times.

there is a piano part there which i think can be played repeatedly like this
|--9----9----7----7----9----9----12----12----|
|----10---10---10---10---10---10----10----10-|
|--------------------------------------------|
|--------------------------------------------|
|--------------------------------------------|
|--------------------------------------------|

that's it thanks please rate
Tap to rate this tab
# A B C D E F G H I J K L M N O P Q R S T U V W X Y Z