Song name
# A B C D E F G H I J K L M N O P Q R S T U V W X Y Z

Misc Unsigned Bands - Radiant Peppermint Hedgehogs - Strumming Away tab

You have to listen to the song
for the strum pattern

Intro/ verse
C, A, D

Chorus
F, G, F, G, D, A, 

Interlude
G7, F, A, C, D, A, C, D

Solo
e-------------------------------------------------------------
b------------------------4---------------4---4---4-6-8--------
g--------------5-3-1-3-5---3-2-1-------3---3---3-------3-5-7--
d--------5-7-9-------------------3-2-1------------------------
a----5-7------------------------------------------------------
e--3----------------------------------------------------------

e--------------------------------------------------------------------
b--------------------------------------------------------------------
g--------------------------------------------------------------------
d-7h9p7p5h7p5p3p1------------------------------------------14-15-16~-
a----------------3h5h7p5h6p5p----------------------11-12-13----------
e----------------------------/3h5h7p87-8-9-10-11-12------------------

Outro
B, A, B, A, C, A, C, A, 
D, A, D, A, F, D, G, A.

intro
verse
chorus
verse
chorus
interlude
solo
chorus
outro
Tap to rate this tab
 
# A B C D E F G H I J K L M N O P Q R S T U V W X Y Z