Song name
# A B C D E F G H I J K L M N O P Q R S T U V W X Y Z

Misc Unsigned Bands - Cumulus - Lifeless tab

Artist: Cumulis
Song: Lifeless

This is My Band's Song.

e----------------------------------------------- Intro
B-----------------------------------------------               
G-----------------------------------------------                
D-----------------------------------------------                   
A---7---7--7--10-10-10---7--7--7---5--5--5------
E--5---5--5---8--8--8---9--9--9---3--3--3-------
               X4

               
e------------------------------------------------------------ Verse
B------------------------------------------------------------
G------------------------------------------------------------
D------------------------------------------------------------
A------------------------------------------------------------
E-5--5-5---8-8-8-8---7-7-7-7---3-3-3-3-----------------------
               X4

e------------------------------------------------------------ Chorus
B------------------------------------------------------------
G------------------------------------------------------------
D------------------------------------------------------------
A-10-10-10---12--12--12--12---5--5--5--5----5--5--5--5-------
E-8--8--8---10--10--10--10---7--7--7--7----3--3--3--3--------
               X4

Then go back to the intro and the verse then do the chorus agian and then this


e------------------------------------------------------------ Interlude
B------------------------------------------------------------
G--12^--12^--12^--12^---15--16^--15--------------------------
D------------------------------------------------------------
A------------------------------------------------------------
E------------------------------------------------------------

Go back to the intro then let ring at the end and then youre done.
Tap to rate this tab
 
# A B C D E F G H I J K L M N O P Q R S T U V W X Y Z