Song name
# A B C D E F G H I J K L M N O P Q R S T U V W X Y Z

Misc Unsigned Bands - Naruto - Hyouhaku tab

Sasuke's Theme Hyouhaku
This is my first tab so yeah...




D:--------------------|
A:--------------------|
F:--------------------|
C:--------------------|
G:--------------------|
D:--------------------|

------------------|
------------------|
------------------|
-22/5-22/9--------|
-22/5-22/9--------|
-00---00-0--------|
                   X2
------------------|
------------------|
------------------|
-22/5-22-2--------|
-22/5-22-2--------|
-00---00-0--------|


---------------------- -------------------------|
-----0----3----------- ----0-----------0--------|
---------2------------ -------------------------|
---2----0------------- ---2-2/52----2-----------|
--2----0-------------- --2--2/52---2------------|
0--------------------- -0---0--0--0-------------|

---------------------- -------------------------|
---0-----3--0--------- ----------0--------------|
--------2------------- -------------------------|
--2----0---2---------- 22/52---2----------------|
-2----0---2----------- 22/52--2-----------------|
0--------0------------ 00--0-0------------------|

----7---7/10-9-------- -------------------------|
3/5------------11--12- ---------0--5/8-5--5/8-7-|
---------------------- -------------------------|
---------------------- 22/52---2----------------|
---------------------- 22/52--2-----------------|
---------------------- 00--0-0------------------|

----------------------|
-5/8-5---------0------|
----------------------|
------22/52---2-------|
----- 22/52--2--------|
------00--0-0---------|

------------------|
------------------|
-22/5-22/9--------|
-22/5-22/9--------|
-00---00-0--------|
                   X2
------------------|
------------------|
------------------|
-22/5-22-2--------|
-22/5-22-2--------|
-00---00-0--------|
Tap to rate this tab
 
# A B C D E F G H I J K L M N O P Q R S T U V W X Y Z