Song name
# A B C D E F G H I J K L M N O P Q R S T U V W X Y Z

Misc Unsigned Bands - Boxing Club - Long Time Dead tab

Long Time Dead by Boxing Club
Listen at facebook.com/boxingclubband

Tuning - drop D
DADGBE

chords
verses - F* (d shape 5thfret), D, F (barre low 3 at 3rdfret), A7
chorus - Bb,F,C,Dm,Bb,Cadd9,D,F,D

verse chords
e----5/2----2-                    e--------0-0-|
B----6/3----3-                    B--------2-2-|
G----5/2----2-                    G--------0-0-|
D---------3---   X3 4th time ---> D---3-3--2-2-|
A---------3---                    A---3-3--0-0-|
D---------3---                    D---3-3--x-x-|

Riff after chorus

e-------------------------------------|
B-------------------------------------|
G-------------------------------------|
D-------------------------------------|
A--------3--------5-------3-------5---|
D--0-4-5----0-4-5---0-4-5---0-4-5-----|

Outro riff

e-------------------------------------------------------------------|
B-------------------------------------------------------------------|
G-------------------------------------------------------------------|
D-------------------------------------------------------------------|
A-------------------------------------------------------------------|
D--0-4-5-0-4-5-0--0-4-5-0-4-5-0--0-4-5-0-4-5-0--0-4-5-0-12-12-12-12-|
Tap to rate this tab
 
# A B C D E F G H I J K L M N O P Q R S T U V W X Y Z