Song name
# A B C D E F G H I J K L M N O P Q R S T U V W X Y Z

Misc Unsigned Bands - Tim Howell - Really tab

E--------------17----------------------17--------------|
B-----15-14-15----15-14-15----15-14-15----15-14-15-----|
G--14----------------------16--------------------------|    X2
D------------------------------------------------------|
A------------------------------------------------------|
D------------------------------------------------------|
     ^Main Riff^



E--14----------------------14----------------------|
B-----15-14-15-17-15-14-15----15-14-15-17-15-14----|
G-----------------------------------------------17-|
D--------------------------------------------------|
A--------------------------------------------------|
D--------------------------------------------------|
     ^Ending^ Play then go back to main riff.
Tap to rate this tab
 
# A B C D E F G H I J K L M N O P Q R S T U V W X Y Z