Song name
# A B C D E F G H I J K L M N O P Q R S T U V W X Y Z

Misc Unsigned Bands - Jessica Thibault - Knock-knock tab

Hey guys, this is my first tab, actually it's an original, so try it out (:
Intro:
CAPO 4th fret

e|------------------------------------------------------------------|
B|------------------------------------------------------------------|
G|------1-------1-------2-------2-------1-------1-------1-------1---|
D|----2---2---2---2---2---2---2---2---2---2---2---2---2---2---2---2-|
A|--2-------2-------2-------2-------2-------2-------0-------0-------|
E|------------------------------------------------------------------|

|------------------------------------------------------------------|
|------------------------------------------------------------------|
|------1-------1-------2-------2-------2-------2-------1-------1---|
|----2---2---2---2---2---2---2---2---2---2---2---2---2---2---2---2-|
|--2-------2-------2-------2-------0-------0-------0-------0-------|
|------------------------------------------------------------------|
Tap to rate this tab
# A B C D E F G H I J K L M N O P Q R S T U V W X Y Z