Song name
# A B C D E F G H I J K L M N O P Q R S T U V W X Y Z

Misc Unsigned Bands - Chico Marx - Im Daffy Over You tab

I have figured out this tab myself
:)
This is also my first tab haha so sorry if it's really messy and you can't understand it :3

1)--3-3-3-3-3--1--0-0-0-0-0------------------------------------------0--|
2)--------------------------3--1-1-1-1-1----------------3---------------|
3)---------------------------------------2-0--0-2-0-2-0---0-2-0-2-0-----|
4)----------------------------------------------------------------------|
5)----------------------------------------------------------------------|
6)----------------------------------------------------------------------|

1)--3-3-3-3-3--1--0-0-0-0-0---------------------------------------------|
2)--------------------------3--1-1-1-1-1----------------3------------1--|
3)---------------------------------------2-0--0-2-0-2-0---0-2-0-2-0-----|
4)----------------------------------------------------------------------|
5)----------------------------------------------------------------------|
6)----------------------------------------------------------------------|

1)-----------0----------0-0------0---0---3-------------3-1-0------------|
2)-0-1-0-1-0---0-0-0-0------0--3---3---3---0-0-1-1-3-3-------3----------|
3)----------------------------------------------------------------------|
4)----------------------------------------------------------------------|
5)----------------------------------------------------------------------|
6)----------------------------------------------------------------------|

1)--3-3-3-3-3--1--0-0-0-0-0------------------------------------------------|
2)--------------------------3--1-1-1-1-1----------------3------------1---1-|
3)---------------------------------------2-0--0-2-0-2-0---0-2-0-2-0----0---|
4)-------------------------------------------------------------------------|
5)-------------------------------------------------------------------------|
6)-------------------------------------------------------------------------|

:)
Tap to rate this tab
# A B C D E F G H I J K L M N O P Q R S T U V W X Y Z