Song name
# A B C D E F G H I J K L M N O P Q R S T U V W X Y Z

Misc Unsigned Bands - The Sea Kings - Ice Cold tab

Intro:
E-0-----------0-----------0----|
A-0-----------0-----------0----|
D-0-----------0-----------0----|
G------------------------------|
B------------------------------|
e------------------------------|

Verse:
E-0-0---0-0---0-0---0-0---3--4-|
A-0-0---0-0---0-0---0-0---3--4-|
D-0-0---0-0---0-0---0-0---3--4-|
G------------------------------|
B------------------------------|
e------------------------------|

E-0-0---0-0---0-0---0-0---5--3-|
A-0-0---0-0---0-0---0-0---5--3-|
D-0-0---0-0---0-0---0-0---5--3-|
G------------------------------|
B------------------------------|
e------------------------------|

E-0-0---0-0---0-0---0-0---3--4-|
A-0-0---0-0---0-0---0-0---3--4-|
D-0-0---0-0---0-0---0-0---3--4-|
G------------------------------|
B------------------------------|
e------------------------------|

E-0-0---0-0---0-0---0-0---3-3--|
A-0-0---0-0---0-0---0-0-------4|
D-0-0---0-0---0-0---0-0--------|
G------------------------------|
B------------------------------|
e------------------------------|

Bridge:
E-0-------------0--------------|
A-0-------------0--------------|
D-0-------------0--------------|
G------------------------------|
B------------------------------|
e------------------------------|

E-0-0---0-0---0-0---0-0--------|
A-----7-----5-----3-----2------|
D------------------------------|
G------------------------------|
B------------------------------|
e------------------------------|
Tap to rate this tab
 
# A B C D E F G H I J K L M N O P Q R S T U V W X Y Z