Song name
# A B C D E F G H I J K L M N O P Q R S T U V W X Y Z

Misc Unsigned Bands - Infection - Horror tab

'Horror' by Infection


Tuning: E A D G B E

Note: listen to record for timing.

1ST RIFF
(Heavy Distortion)

e|-----------------------------------------|Repeat
B|-----------------------------------------|
G|-----------------------------------------|  
D|---5-5-5-5-4-4-4-4-----------------------|
A|---6-6-6-6-5-5-5-5-----------------------|
E|---4-4-4-4-3-3-3-3-----------------------|

2ND RIFF
(Heavy Distortion)

e|-----------------------------------------|Repeat
B|-----------------------------------------|
G|-----------------------------------------|  
D|---2-2-2-2-------------------------------|
A|---3-3-3-3-2-2-2-2-----------------------|
E|---1-1-1-1-1-1-1-1-----------------------|

3RD RIFF
(Clean)

e|-----------------------------------------|Repeat
B|------5-----------3----------------------|
G|--------5-----------3--------------------|  
D|---7------------5------------------------|
A|-----------------------------------------|
E|---0------------0------------------------|

end
Tap to rate this tab
 
# A B C D E F G H I J K L M N O P Q R S T U V W X Y Z