Song name
# A B C D E F G H I J K L M N O P Q R S T U V W X Y Z

Misc Unsigned Bands - Eye On Molly - Soar tab

-------------------------------------------------------------------------------
                            SOAR - Eye on Molly
------------------------------------------------------------------------------- 
http://www.facebook.com/pages/Eye-on-Molly/142725972490246

Tuning: Standard

Capo 3

INTRO

e|--------3-------3------3-------3-------0-------0-------0-------0-----------|
B|----0-------0-------0------0-------0-------0-------0-------0---------------|
G|------0-------0-------0------0-------0-------0-------0-------0-------------|
D|--0-------0-------0------0-------2-------2-------2-------2-----------------|
A|---------------------------------------------------------------------------|
E|---------------------------------------------------------------------------|

e|--------0-------0-------0-------0-------2------2-------2-------2-----------|
B|----2-------2-------2-------2-------3------3-------3-------3---------------|
G|------0-------0-------0-------0-------2------2-------2-------2-------------|
D|--2-------2-------2-------2-------0------0-------0-------0-----------------|
A|---------------------------------------------------------------------------|
E|---------------------------------------------------------------------------| 

VERSE (same as intro)x2

CHORUS

e|--------3-------3------0-------0-------0-------0-------2-------2-----------|
B|----0-------0-------0------0-------2-------2-------3-------3---------------|
G|------0-------0-------0------0-------0-------0-------2-------2-------------|
D|--0-------0-------2------2-------2-------2-------0-------0-----------------|
A|---------------------------------------------------------------------------|
E|---------------------------------------------------------------------------| x2

e|--------3-------3------3-------3-------0-------0-------0-------0-----------|
B|----0-------0-------0------0-------0-------0-------0-------0---------------|
G|------0-------0-------0------0-------0-------0-------0-------0-------------|
D|--0-------0-------0------0-------2-------2-------2-------2-----------------|
A|---------------------------------------------------------------------------|
E|---------------------------------------------------------------------------|

e|--------0-------0-------0-------0-------2------2-------2-------2-----------|
B|----2-------2-------2-------2-------3------3-------3-------3---------------|
G|------0-------0-------0-------0-------2------2-------2-------2-------------|
D|--2-------2-------2-------2-------0------0-------0-------0-----------------|
A|---------------------------------------------------------------------------|
E|---------------------------------------------------------------------------| 

VERSE 2 (same as verse 1)

Bridge (same as intro)

VERSE

CHORUS

You're that knight in rusted armour
You're that kind and bony king
You're that angel who let us fly by giving up your wings, so

Let me shine you from your shoes to your helm
Lean on me and receive your crown
Take flight and soar, soar 
Round and round and round

I'm that hero who is cheered for
I'm that star that's shining bright
But you're the one who saved the hero
When he's thought he's won, so

Let me shine you from your shoes to your helm
Lean on me and receive your crown
Take flight and soar, soar 
Round and round and round

You're that knight in rusted armour
You're that kind and bony king
You're that angel who let us fly by giving up your wings, so

Let me shine you from your shoes to your helm
Lean on me and receive your crown
Take flight and soar, soar 
Round and round and round
Tap to rate this tab
# A B C D E F G H I J K L M N O P Q R S T U V W X Y Z