Song name
# A B C D E F G H I J K L M N O P Q R S T U V W X Y Z

Misc Unsigned Bands - Tatsu Takahashi - Chaos Within tab

Sometimes you need to PM, you'll hear it in the song. This tab is just to give you 
some notes to start with. ;) GL!

E||--------------||
B||--------------||
G||--------------||
D||---12\0---0---||
A||---12\0---0---||
D||---12\0---0---||


E||-----------------------------------||-------------------------------|| x2
B||-----------------------------------||-------------------------------||
G||-----------------------------------||-------------------------------||
D||---0-----------0-0-----------3--0--||-0---------0-0--------------0--||
A||---0---4-5-----0-0--2-3------3--0--||-0-4-5-----0-0--5-3-0-------0--||
D||---0-------6-7-0-0------4-5--3--0--||-0-----6-7-0-0--------5-3-5-0--||


E||--------------------------------------||---------------------------------|| x3
B||--------------------------------------||---------------------------------||
G||--------------------------------------||---------------------------------||
D||--00-0---0--0---0----0--0---0--0---0--||--00-0--0--0---0--0--00-3--0--0--||
A||--00-0---0--0---0----0--0---0--0---0--||--00-0--0--0---0--0--00-3--0--0--||
D||--00-0---0--0---0----0--0---0--0---0--||--00-0--0--0---0--0--00-3--0--0--||


E||--------------------------------------||-------------------------------------||
B||--------------------------------------||-------------------------------------||
G||--------------------------------------||-------------------------------------||
D||--00-0---0--0---0----0--0---0--0---0--||--00-0--0--0--0-0--2--3--2--0--5--3--||
A||--00-0---0--0---0----0--0---0--0---0--||--00-0--0--0--0-0--2--3--2--0--5--3--||
D||--00-0---0--0---0----0--0---0--0---0--||--00-0--0--0--0-0--2--3--2--0--5--3--||


E||--------------------------------------||----------------------------------------------------||x1
B||--------------------------------------||----------------------------------------------------||
G||-------------------------7---------10-||----------------------------------------------------||
D||---10---5---5-p3--3-0-0--7--00--0--10-||-10----5---5-p3--0-0-2-h3-2-p0--00--2-h3-2-p0--5-h3-||
A||---10---5---5-p3--3-0-0--5--00--0---8-||-10----5---5-p3--0-0-2-h3-2-p0--00--2-h3-2-p0--5-h3-||
D||---10---5---5-p3--3-0-0-----00--0-----||-10----5---5-p3--0-0-2-h3-2-p0--00--2-h3-2-p0--5-h3-||


E||---------------------------------------||---------------------||
B||---------------------------------------||---------------------||
G||--------------------------7---------10-||---------------------||
D||---10----5---5-p3--3-0-0--7--00--0--10-||-10----5---5-p3--0---||
A||---10----5---5-p3--3-0-0--5--00--0---8-||-10----5---5-p3--0---||
D||---10----5---5-p3--3-0-0-----00--0-----||-10----5---5-p3--0---||
Tap to rate this tab
# A B C D E F G H I J K L M N O P Q R S T U V W X Y Z